The Clash

I Fought The Law

The Clash

bass Easy easy

save to print version add songbook text version e-mail correct tuner
chordsukulelecavacokeyboardtabbassdrumsharmonicaflute Guitar Pro
close

there isn't a video lesson for this song

chords

I Fought The Law

Year: 2003 - Album: Essential Clash

(Curtis)

	  		


 - 

TABBED BY JIM COTTRELL ([email protected]) WWW.CLIK.TO/AMBRE

INTRO 

G --------------------------------------------------------------------
D ------------------5-5-5-6-7-7-7-7-----------------------7--5-4------
A -5-5-5-5-5-5-5-5--------------------5-5-5-5-5-5-5-5-5-----------5--- X2
E --------------------------------------------------------------------

1ST VERSE

G ------------------------------------------------------------------
D -----------5-5---------------------5--------------------5---------
A --5-5-5-5-------5-5-0---5-5-5-5-------5-5--0--5-5-5-5------5-5-0-- X2
E ---------------------------------3--------------------3----------- 

BRIDGE

G ----------------------------------------------
D --------5----------------------------------5--
A --------------5----5-4-5-4-5-4-5-4------------
E --3----------------------------------3--------

CHORUS

G ----------------------------------------------
D --------------5--------------------7--5-4-----
A --5-5-5-5--------5-5-0---5-5-5-5-----------5--
E -----------3----------------------------------

SOLO

G ---------------------------------    G ------------------------------------
D ---------------------------------    D --5-5-5-----5--------5-------5------
A --5-5-5-5-5-5-5-5-5-5-5-5-5-5-5--    A ----------5-----5-5-----5-------5--- X2
E ---------------------------------    E ------------------------------------

ON THE 3RD TIME PLAY

G ------------------------------------------------------------
D --5-5-5------5-----------------------------------7--5-4-----
A ----------5-----5-5-5-5-5-5-5-5-5-5-5-5-5-5-5-5----------5--
E ------------------------------------------------------------

2ND VERSE

G --------------------------------------------------------------
D ------------------------------5---------------------5---------
A --5-5-5-5--#-#-#-#-5-5-5-5-------5-5-0---5-5-5-5-------5-5-0--
E ----------------------------3---------------------3-----------

G ------------------------------------------------------------------
D -----------5-5---------------------5--------------------5---------
A --5-5-5-5-------5-5-0---5-5-5-5-------5-5--0--5-5-5-5------5-5-0-- 
E ---------------------------------3--------------------3----------- 

BRIDGE

G ----------------------------------------------
D --------5----------------------------------5--
A --------------5----5-4-5-4-5-4-5-4------------
E --3----------------------------------3--------

CHORUS

G ----------------------------------------------
D --------------5--------------------7--5-4-----
A --5-5-5-5--------5-5-0---5-5-5-5-----------5--
E -----------3----------------------------------

2ND SOLO

G ---------------------------------------------------
D ---------------5-5---------------------7--5-4------
A --5-5-0-5-5-0-------5-5-0--5-5-0-5-5-0----------5--
E ---------------------------------------------------

THEN ITS DRUMS AND VOCALS FOR 8 BARS
AFTER THAT THE BASS COMES IN WITH

G -----------------------     G ---------------------
D -----------------------     D ----------7--5-4-----
A --5-5-5-5-------5-5-0-- X3  A -5-5-5-5----------5--
E -----------3-3---------     E ---------------------

WWW.CLIK.TO/AMBRE

		  

See also:

bass American Hi-Fi - Nothing Left To Lose bass Allister - Somewhere On Fullerton bass Adicts - Joker In The Pack bass American Hi-Fi - Beautiful Disaster bass Crass - What A Shame bass Adicts - Johnny Was A Soldier
e-chords

Other versions:

bass Dead Kennedys - I Fought The Law bass Green Day - I Fought The Law bass The Clash - I Fought The Law
auto scroll beats size up size down change color hide chords drawings
tab show chords e-chords YouTube Clip e-chords hide all tabs e-chords go to top tab

share