American Hi-Fi

Scar

American Hi-Fi

bass

save to print version add songbook text version e-mail correct tuner
chordsukulelecavacokeyboardtabbassdrumsharmonicaflute Guitar Pro
close

there isn't a video lesson for this song

chords

Scar

	  		

Band - 
Song - 
Album - American Hi-Fi

Intro/bridge
G----5-7------------------5-7-----------------
D--00---0-5-7-0---78887-00---0-5-7-0---78887--
A--------------888------------------888-------
E---------------------------------------------

Verse
G--------------------------------------------------------------------
D--0000000000000000333333333333333300000000000000003333333333333333--
A--------------------------------------------------------------------
E--------------------------------------------------------------------

Pre-chorus
G-------------------------------------------------------------------
D----------11111111----------------------0-11-11-5------------------
A------------------1111111100000000---------------1111111-----------
E--33333333------------------------33-333----------------111111111--

Chorus
G------------------------------------------------------------------
D------------------------------------------------------------------
A--11111111-------------1111111011111111------------11111----1-11--
E----------0000000033311----------------000000003311-----3311------

Ending
G------------------------------------
D--0-3-0-3---------------------------
A------------------------------------
E---------11-11-11-22-11-11-11-1111--

		  

See also:

bass Allister - Fraggle Rawk (ver. 2) bass Biohazard - End Of My Rope bass Allister - Somewhere On Fullerton bass The Cure - Boys Don't Cry bass Box Car Racer - There Is bass Crass - Bata Motel
e-chords

Other versions:

bass American Hi-Fi - Scar bass Red Hot Chili Peppers - Scar Tissue bass Three Days Grace - Scared bass U2 - Scarlet bass Guster - Scars And Stitches bass Biffy Clyro - Scary Mary
auto scroll beats size up size down change color hide chords drawings
tab show chords e-chords YouTube Clip e-chords hide all tabs e-chords go to top tab

share