Allister

Radio Player

Allister

bass

save to print version add songbook text version e-mail correct tuner
chordsukulelecavacokeyboardtabbassdrumsharmonicaflute Guitar Pro
close

there isn't a video lesson for this song

chords

Radio Player

	  		

Intro(x2)
G:-----------------------------------------------------------------
D:-----------------------------------------------------------------
A:22222222222222---------------------------------------------------
E:--------------22222222222222-000000000000000-2222222222----------


Verse: (x4)
G:-----------------------------------------------------------------
D:-----------------------------------------------------------------
A:22-22------------------------------------------------------------
E:---------00-22------------------------------------------------------------------------

Pre Chorus (x2)
G:-----------------------------------------------------------------
D:-----------------------------------------------------------------
A:---------22222222---------22222222---------222222222-------------
E: 00000000------------00000000-------------00000000-------------22222222------

Chorus (x4)
G:-----------------------------------------------------------------
D:-----------------------------------------------------------------
A:2222-------------------------------------------------------------
E:------4444-0000-2222---------------------------------------------------------------

Pre Verse:
G:-----------------------------------------------------------------
D:-----------------------------------------------------------------
A:22222222222222---------------------------------------------------
E:--------------22222222222222-000000000000000-2222222222----------

Verse: (x4)
G:-----------------------------------------------------------------
D:-----------------------------------------------------------------
A:22-22------------------------------------------------------------
E:---------00-22------------------------------------------------------------------------

Pre Chorus (x2)
G:-----------------------------------------------------------------
D:-----------------------------------------------------------------
A:---------22222222---------22222222---------222222222-------------
E: 00000000------------00000000-------------00000000-------------22222222------

Chorus (x8)
G:-----------------------------------------------------------------
D:-----------------------------------------------------------------
A:2222-------------------------------------------------------------
E:------4444-0000-2222---------------------------------------------------------------

Pre Bridge
G:-----------------------------------------------------------------
D:-----------------------------------------------------------------
A:--------------------------22-22----------------------------------
E:44444444-22222222-00000000---------44444444-222222222-0000000000000-22222

Bridge (x6)
G:--------9--------------------------------------------------------
D:14--16--9--------------------------------------------------------
A:14--16-----------------------------------------------------------
E:---------------------------------------------------------------------------------------

Chorus (x8)
G:-----------------------------------------------------------------
D:-----------------------------------------------------------------
A:2222-------------------------------------------------------------
E:------4444-0000-2222---------------------------------------------------------------

End with 'B' twice

A:--22----

		  

See also:

bass American Hi-Fi - Scar bass Allister - Racecars bass Allister - Somewhere Down In Fullerton bass Box Car Racer - My First Punk Song bass American Hi-Fi - The Art Of Losing (ver. 2) bass Wire - Lowdown
e-chords

Other versions:

bass Allister - Radio Player
auto scroll beats size up size down change color hide chords drawings
tab show chords e-chords YouTube Clip e-chords hide all tabs e-chords go to top tab

share