Allister

Waiting For You

Allister

bass

save to print version add songbook text version e-mail correct tuner
chordsukulelecavacokeyboardtabbassdrumsharmonicaflute Guitar Pro
close

there isn't a video lesson for this song

chords

Waiting For You

	  		

Band:

Tabbed by:LAUREN  ([email protected])

Intro
G------------------------------------------------------
D------------------------------------------------------
A-----------------6-6-6-6-8-8-8-8-6-6-6-6-6-6-6-6-8-8-8
E-6-6-6-6-3-3-3-3--------------------------------------

Verse (play 2x)
G-------------------------------------------------------------------
D-------------------------------------------------------------------
A-6-6-----------6-6-6-----------6-6-6----------6-6-6-8-8-8-8-8-8-8-8
E-----6-6-6-6-6-------6-6-6-6-6-------6-6-6-6-6---------------------

Bridge 1 (now I think that you should know.........)
G
D (the bass line moves around a lot here, it's easy to wing, but i'm workin on it)
A                              
E

Chorus
G---------------------------
D---------------------------                  <-- PLAY THAT 4 TIMES
A-------------6-6-6-8-8-8-8-
E-6-6-6-3-3-3---------------

G-----------------------
D-----------------------
A-6-6-6-6-6-6-6-6-8-8-8-                      <-- THEN PLAY THAT ONCE
E-----------------------

repeat verse
repeat bridge 1
repeat chorus

Bridge 2  (it's funny how....)
G-----------------------------------------------------------
D-----------------------------------------------------------     <--PLAY THAT TWICE
A-6--6-6-6-6-6-6-6-8-8-8-8-8-8-8-8-------6-6----------------
E----------------------------------6-6-6-----6-6-6-6-6-6-6-6-      

(don't forget.....)
G-----------------------------------------------------------------
D-----------------------------------------------------------------
A-6-6-6-6-6-6-6-6-8-8-8-8-8-8-8-8---------------------------------
E---------------------------------6-6-6-6-6-6-6-6-3-3-3-3-3-3-3-3-

G-----------------------------------------------------------------
D-----------------------------------------------------------------
A-6-6-6-6-6-6-6-6-6-6-6-6-6-6-6-6-8-8-8-8-8-8-8-8-8-8-8-8-8-8-8-8-
E-----------------------------------------------------------------

Rest

Repeat Chorus 5x

Last Chorus
G------------------------------------
D------------------------------------
A-----------------3-3-3-3------------
E-6-6-6-6-3-3-3-3---------1-1-1-3-5-6

		  

See also:

bass American Hi-Fi - Scar bass Allister - Racecars bass Allister - Somewhere Down In Fullerton bass Box Car Racer - My First Punk Song bass American Hi-Fi - The Art Of Losing (ver. 2) bass Wire - Lowdown
e-chords

Other versions:

bass Allister - Waiting For You
auto scroll beats size up size down change color hide chords drawings
tab show chords e-chords YouTube Clip e-chords hide all tabs e-chords go to top tab

share