Soundgarden

home > Soundgarden

Kingdom Of Come Bass Tab

Soundgarden

Difficulty: nolevelnolevel

by renejunior

tuner correct add songbook print version text version save to e-mail
chordsukulelecavacokeyboardtabbassdrumsharmonicsflute Guitar Pro
chords

Kingdom Of Come

Year: 1990 - Album: Screaming Life/Fopp

  		INTRO/PRE-Verse: 

      (Rest x4) 
G |-----------------| 
D |-----------------| 
A |-----------------| 
E |-r---------------| 
    1 & 2 & 3 & 4 & 


verse 1 (x2): 

G |-----------------|-----------------|-----------------|-----------------| 
D |-----------------|-----------------|-----------------|-----------------| 
A |-----------------|-----------------|-----------------|-----------------| 
E |-5-5-3-0-5-5-3-2-|-5-5-3-0-5-5-3-2-|-0-0-5h7-0-0-5h7-|-0-0-5h7-0-0-5h7-| 
    1 & 2 & 3 & 4 &   1 & 2 & 3 & 4 &   1 & 2 & 3 & 4 &   1 & 2 & 3 & 4 & 


FILL: 

G |-----------------|-----------------| 
D |-----------------|-----------------| 
A |-----------------|-----------------| 
E |-5-5-3-0-5-5-3-2-|-5-5-3-0-5-5-3-0-| 
    1 & 2 & 3 & 4 &   1 & 2 & 3 & 4 & 


Chorus 1: 
   6/4 
G |-------------------------|-------------------------|-------------------------| 
D |-------------------------|-------------------------|-------------------------| 
A |-------------------------|-----3-------3-------3---|-------------------------| 
E |-5-----------------------|-3-5---5---3-----5-3-----|-5-----------------------| 
    1 & 2 & 3 & 4 & 5 & 6 &   1 & 2 & 3 & 4 & 5 & 6 &   1 & 2 & 3 & 4 & 5 & 6 & 

                             4/4 
G |-------------------------|-----------------|-----------------|-----------------| 
D |-------------------------|-----------------|-----------------|-----------------| 
A |-----3-------3-------3---|-----------------|-----------------|-------5---------| 
E |-3-5---5---3-----5-3-----|-5---------------|-1-1-1-1-1-1-1-1-|-1-3-r-----------| 
    1 & 2 & 3 & 4 & 5 & 6 &   1 & 2 & 3 & 4 &   1 & 2 & 3 & 4 &   1 & 2 & 3 & 4 & 

                                       6/4 
G |-----------------|-----------------|-------------------------| 
D |-----------------|-----------------|-------------------------| 
A |-5---------------|-5---------------|-5---------------5-------| 
E |---6---0---0-0-0-|---6---0---0-0-0-|---6---0---0-0-0---6---0-| 
    1 & 2 & 3 & 4 &   1 & 2 & 3 & 4 &   1 & 2 & 3 & 4 & 5 & 6 & 


PRE-Verse: 

G |-----------------|-----------------|-----------------|-----------------| 
D |-----------------|-----------------|-----------------|-----------------| 
A |-----------------|-----------------|-----------------|-----------------| 
E |(0)--------------|(0)--------------|(0)--------------|(0)--------------| 
    1 & 2 & 3 & 4 &   1 & 2 & 3 & 4 &   1 & 2 & 3 & 4 &   1 & 2 & 3 & 4 & 


verse 2 (x2): 

G |-----------------|-----------------|-----------------|-----------------| 
D |-----------------|-----------------|-----------------|-----------------| 
A |-----------------|-----------------|-----------------|-----------------| 
E |-5-5-3-0-5-5-3-2-|-5-5-3-0-5-5-3-2-|-0-0-5h7-0-0-5h7-|-0-0-5h7-0-0-5h7-| 
    1 & 2 & 3 & 4 &   1 & 2 & 3 & 4 &   1 & 2 & 3 & 4 &   1 & 2 & 3 & 4 & 


FILL: 

G |-----------------|-----------------| 
D |-----------------|-----------------| 
A |-----------------|-----------------| 
E |-5-5-3-0-5-5-3-2-|-5-5-3-0-5-5-3-0-| 
    1 & 2 & 3 & 4 &   1 & 2 & 3 & 4 & 


Chorus 2: 
   6/4 
G |-------------------------|-------------------------|-------------------------| 
D |-------------------------|-------------------------|-------------------------| 
A |-------------------------|-----3-------3-------3---|-------------------------| 
E |-5-----------------------|-3-5---5---3-----5-3-----|-5-----------------------| 
    1 & 2 & 3 & 4 & 5 & 6 &   1 & 2 & 3 & 4 & 5 & 6 &   1 & 2 & 3 & 4 & 5 & 6 & 

                             4/4 
G |-------------------------|-----------------|-----------------|-----------------| 
D |-------------------------|-----------------|-----------------|-----------------| 
A |-----3-------3-------3---|-----------------|-----------------|-------5---------| 
E |-3-5---5---3-----5-3-----|-5---------------|-1-1-1-1-1-1-1-1-|-1-3-r-----------| 
    1 & 2 & 3 & 4 & 5 & 6 &   1 & 2 & 3 & 4 &   1 & 2 & 3 & 4 &   1 & 2 & 3 & 4 & 

                                       6/4 
G |-----------------|-----------------|-------------------------| 
D |-----------------|-----------------|-------------------------| 
A |-5---------------|-5---------------|-5---------------5-------| 
E |---6---0---0-0-0-|---6---0---0-0-0-|---6---0---0-0-0---6---0-| 
    1 & 2 & 3 & 4 &   1 & 2 & 3 & 4 &   1 & 2 & 3 & 4 & 5 & 6 & 


FILL: 

G |-----------------|-----------------| 
D |-----------------|-----------------| 
A |-----------------|-----------------| 
E |(0)--------------|(0)--------------| 
    1 & 2 & 3 & 4 &   1 & 2 & 3 & 4 & 


INTERLUDE & GUITAR SOLO (x7): 

G |-----------------|-----------------|-----------------|-----------------| 
D |-----------------|-----------------|-----------------|-----------------| 
A |-----------------|-----------------|-----------------|-----------------| 
E |-0-0-0-3-0-0-0-3-|-0-0-0-3-0-0-0-3-|-0-0-0-3-0-0-0-3-|-0-0-0-3-0-0-0-3-| 
    1 & 2 & 3 & 4 &   1 & 2 & 3 & 4 &   1 & 2 & 3 & 4 &   1 & 2 & 3 & 4 & 


OUT-Chorus: 

   6/4 
G |-------------------------|-------------------------|-------------------------| 
D |-------------------------|-------------------------|-------------------------| 
A |-------------------------|-----3-------3-------3---|-------------------------| 
E |-5-----------------------|-3-5---5---3-----5-3-----|-5-----------------------| 
    1 & 2 & 3 & 4 & 5 & 6 &   1 & 2 & 3 & 4 & 5 & 6 &   1 & 2 & 3 & 4 & 5 & 6 & 

                             4/4 
G |-------------------------|-----------------|-----------------|-----------------| 
D |-------------------------|-----------------|-----------------|-----------------| 
A |-----3-------3-------3---|-----------------|-----------------|-------5---------| 
E |-3-5---5---3-----5-3-----|-5---------------|-1-1-1-1-1-1-1-1-|-1-3-r-----------| 
    1 & 2 & 3 & 4 & 5 & 6 &   1 & 2 & 3 & 4 &   1 & 2 & 3 & 4 &   1 & 2 & 3 & 4 & 

                                                                (Let ring) 
G |-----------------|-----------------|-----------------|-----------------| 
D |-----------------|-----------------|-----------------|-----------------| 
A |-5---------------|-5---------------|-5---------------|-5---------------| 
E |---6---0---0-0-0-|---6---0---0-0-0-|---6---0---0-0-0-|---6---0---------| 
    1 & 2 & 3 & 4 &   1 & 2 & 3 & 4 &   1 & 2 & 3 & 4 &   1 & 2 & 3 & 4 & 

LEGEND: 
r = rest 
h = hammer on 
() = sustained note 
	  

Search Paypal
auto scroll beats size up size down change color hide chords drawings
tab show chords e-chords YouTube Clip e-chords hide all tabs e-chords go to top tab