Pearl Jam

home > Pearl Jam

Hitchhiker Bass Tab

Pearl Jam

Difficulty: nolevelnolevel

by Apocalyptica

tuner correct add songbook print version text version save to e-mail
chordsukulelecavacokeyboardtabbassdrumsharmonicsflute Guitar Pro
chords

Hitchhiker

Year: 2003 - Album: Lost Dogs: Rarities and B Sides

  		Transcribed by: Ross Duncan 
email: [email protected] 
 
Created for giventowail.com 
 
Standard tuning 
 
Verse: 
|------------------------------------------------------------| 
|---------------------------------------------------2--2-2-2-|   play twice 
|--0--0-0-3--3-3-2-3-2----------0--0-0-3--3-3-2-3-2----------| 
|----------------------0--0-3-0------------------------------| 
 
 
 
|--------------------------------------| 
|----10----10--------------------------|  play four times 
|-0-----12----12------------8-----8----| 
|------------------10-10-10----10---10-| 
 
 
 
Pre Chorus: 
|----------------------------------------------------------------| 
|----------------------------------------------------------------| 
|----------------------------------------------------------------| 
|-6--6-6-6-6-6-6-6-6-6-6-6-6-6-6-8-8-8-8-8-8-8-8-8-8-8-8-8-8-8-8-| 
 
 
 
Chorus: 
|------------------------------------------------------------| 
|---------------------------------------------------2--2-2-2-|   play four  
times 
|--0--0--3--3-3--2-3-2----------0--0-0-3--3-3-2-3-2----------| 
|----------------------0--0-3-0------------------------------| 
 
 
 
|-----------------------------------------------------------------| 
|-----------------------------------------------------------------| 
|-5-5-5-5-5-5-5-5-5-5-5-5-5-5-5-5-5-5-5-5-5-5-5-5-5-5-5-5-5-5-5-5-| 
|-----------------------------------------------------------------| 
 
 
 
Verse: 
|------------------------------------------------------------| 
|---------------------------------------------------2--2-2-2-|   play twice 
|--0--0-0-3--3-3-2-3-2----------0--0-0-3--3-3-2-3-2----------| 
|----------------------0--0-3-0------------------------------| 
 
 
 
 
Pre Chorus: 
|----------------------------------------------------------------| 
|----------------------------------------------------------------| 
|----------------------------------------------------------------| 
|-6--6-6-6-6-6-6-6-6-6-6-6-6-6-6-8-8-8-8-8-8-8-8-8-8-8-8-8-8-8-8-| 
 
 
 
Chorus: 
|------------------------------------------------------------| 
|------------------------------------------------------------| 
|--0--0--3--3-------------------0--0--3--3-------------------| 
|-------------------------0-3-0----------------------0-3-0---| 
 
 
 
|------------------------------------------------------------| 
|---------------------------------------------------2--2-2-2-|   play twice 
|--0--0--3--3-3--2-3-2----------0--0-0-3--3-3-2-3-2----------| 
|----------------------0--0-3-0------------------------------| 
 
 
 
Bridge: 
|-------------------------------------------------------------------------------- 
|-------------------------------------------------------------------------------- 
|-5--5-5-5-5-5-5-5-5-5-5-5-5-5-5-5-5-5-5-5-5-5-5-5-5-5-5-5-5-5-5-5-5-5-5-5-5-5-5- 
|-------------------------------------------------------------------------------- 
 
 
--------------------------------------------------------------------------------- 
--------------------------------------------------------------------------------- 
-5-5-5-5-5-5-5-5/13-13-13-13-13-13-13-13-8-8-8-8-8-8-8-8-5-5-5-5-5-5-5-5-5-5-5-5- 
--------------------------------------------------------------------------------- 
 
 
-------------------------------------------------------------------------------- 
-------------------------------------------------------------------------------- 
-5-5-5-5-/13-13-13-13-13-13-13-13-10-10-10-10-10-10-10-10-5-5-5-5-5-5-5-5-5-5-5- 
-------------------------------------------------------------------------------- 
 
 
-------------------------------------------------------------------------------- 
-------------------------------------------------------------------------------- 
-5-5-5-5-5-/13-13-13-13-13-13-13-13-8-8-8-8-8-8-8-8-5-5-5-5-5-5-5-5-5-5-5-5-5-5- 
-------------------------------------------------------------------------------- 
 
 
-------------------------------------------------------------------------------- 
-------------------------------------------------------------------------------- 
-5-5-/13-13-13-13-13-13-13-13-10-10-10-10-10-10-10-10-5-5-5-5-5-5-5-5-5-5-5-5-5- 
-------------------------------------------------------------------------------- 
 
 
------------------------------------------------| 
------------------------------------------------| 
-5-5-5-/13-13-13-13-13-13-13-13-8-8-8-8-8-8-8-8-| 
------------------------------------------------| 
 
 
 
Verse: 
|------------------------------------------------------------| 
|---------------------------------------------------2--2-2-2-|   play four  
times 
|--0--0--3--3-3--2-3-2----------0--0-0-3--3-3-2-3-2----------| 
|----------------------0--0-3-0------------------------------| 
 
 
 
Pre Chorus: 
|----------------------------------------------------------------| 
|----------------------------------------------------------------| 
|----------------------------------------------------------------| 
|-6--6-6-6-6-6-6-6-6-6-6-6-6-6-6-8-8-8-8-8-8-8-8-8-8-8-8-8-8-8-8-| 
 
 
 
Chorus: 
|------------------------------------------------------------| 
|---------------------------------------------------2--2-2-2-|   play twice 
|--0--0--3--3-3--2-3-2----------0--0-0-3--3-3-2-3-2----------| 
|----------------------0--0-3-0------------------------------| 
 
 
|--------------------------------------| 
|----10----10--------------------------|  play four times 
|-0-----12----12------------8-----8----| 
|------------------10-10-10----10---10-| 
 
 
|-----------------| 
|-----------------| 
|-----------------| 
|--0--------------| 
	  

Search Paypal
auto scroll beats size up size down change color hide chords drawings
tab show chords e-chords YouTube Clip e-chords hide all tabs e-chords go to top tab