Maroon 5

home > Maroon 5

Harder To Breathe Bass Tab

Maroon 5

Difficulty: nolevelnolevel

by Ricardo+Polato

tuner correct add songbook print version text version save to e-mail
chordsukulelecavacokeyboardtabbassdrumsharmonicsflute Guitar Pro
chords

Harder To Breathe

Year: 2002 - Album: Songs About Jane

  		Tablatura de Baixo 
 
    Intro e vocal 
    Repetir 3x          
G||------------------|----------------------|------------------| 
D||*-----------------|-----------------2-4-*|------------------| 
A||*-2-4---2-4-------|--2-4---2-4---2-4----*|-2-4----4---------| 
E||------------4-----|-------------4--------|------------------| 
 
       Refrão 
G||------------------|------------------|------------------| 
D||------------------|------------------|------------------| 
A||-4----------------|-2------------2---|-4----------------| 
E||----4—4-4---------|----2-2-2--0-2----|----4-4-4---------| 
 
G||------------------|------------------|--------------|---------| 
D||------------------|------------------|--------------|---------| 
A||-2----------------|-4----------------|-2------------|--4------| 
E||---2-2-2--2-0-2-0-|----4-4-4---------|---2-2-3-2-0--|---------| 
 
G||----------|----------|----------| 
D||-1compasso|----------|-1compasso| 
A||-de pausa-|-4--------|-de pausa-| 
E||----------|----------|----------| 
 
       
G||------------------|----------------------|------------------| 
D||------------------|-----------------2-4--|------------------| 
A||--2-4---2-4-------|--2-4---2-4---2-4-----|-2-4--2-4---------| 
E||------------4-----|-------------4--------|----------4-------| 
 
 
G||--------------| 
D||--------------| 
A||-2-4----4-----| 
E||--------------| 
 
 
       Refrão 
G||------------------|------------------|------------------| 
D||------------------|------------------|------------------| 
A||-4----------------|-2------------2---|-4----------------| 
E||----4—4-4---------|----2-2-2--0-2----|----4-4-4---------| 
 
G||------------------|------------------|--------------| 
D||------------------|------------------|--------------| 
A||-2----------------|-4----------------|-2------------| 
E||---2-2-2--2-0-2-0-|----4-4-4---------|---2-2-3-2-0--| 
 
G||------------------|------------------|-----------|------------| 
D||------------------|------------------|-----------|--1compasso-| 
A||-4--4-4-4---------|---4-4------------|-4---------|-de-pausa---| 
E||------------------|-4------4-3-2-0---|-----------|------------| 
 
 
    Solo 
G||------------------| Repetir 8x 
D||*----------------*| 
A||*-4--4-4-4-------*| 
E||------------------| 
 
       Refrão 
G||------------------|------------------|------------------| 
D||------------------|------------------|------------------| 
A||-4----------------|-2------------2---|-4----------------| 
E||----4—4-4---------|----2-2-2--0-2----|----4-4-4---------| 
 
G||------------------|------------------|--------------| 
D||------------------|------------------|--------------| 
A||-2----------------|-4----------------|-2------------| 
E||---2-2-2--2-0-2-0-|----4-4-4---------|---2-2-3-2-0--| 
 
G||------------------|------------------|-----------|------------| 
D||------------------|------------------|-----------|--1compasso-| 
A||-4--4-4-4---------|---4-4------------|-4---------|-de-pausa---| 
E||------------------|-4------4-3-2-0---|-----------|------------| 
 
G||---------|------------|-------------| 
D||---------|-1-compasso-|-------------|Final 
A||-4-------|-de pausa---|-2-4---------| 
E||---------|------------|-------------| 
 
Espero ter podido ajudar contribuindo com à transcrição dessa música.Qualquer dúvida ou contato pode ser feita através do meu          e-mail:[email protected] 
 

	  

Search Paypal
auto scroll beats size up size down change color hide chords drawings
tab show chords e-chords YouTube Clip e-chords hide all tabs e-chords go to top tab