Maroon 5

home > Maroon 5

This Love Bass Tab

Maroon 5

Difficulty: BeginnerBeginner

by Acelot

tuner correct add songbook print version text version save to e-mail
chordsukulelecavacokeyboardtabbassdrummharmonicsflute Guitar Pro
chords

This Love

Year: 2002 - Album: Songs About Jane

  		x= half a rest  
  
Intro/Verse:  
|----------------------------------  
|---------5-4-3-3-1-0--------------  
|-2-2-5-3---------------1-2--------  
|---------------------4------------  
  
Chorus:  
|-----------------------------------  
|----------3-3-x-3---------x-1-1-1--  
|-3-3-x-3----------1-1-x-1----------  
|-----------------------------------  
  
Bridge:  
|--------------------------------------  
|--------------------------------------  
|-8----6----2----3-56-8-88-6-66-10-----  
|--------------------------------------  
  
  
  
intro/verse 4X  
  
Chorus 3X  
  
intro/verse 3X  
  
Chorus 3X  
  
intro/verse 1X  
  
bridge 1X  
  
ai tocar o Chorus até o final da música 
	  

Search Paypal
auto scroll beats size up size down change color hide chords drawings
tab show chords e-chords YouTube Clip e-chords hide all tabs e-chords go to top tab