Maroon 5

home > Maroon 5

This Love Tab

Maroon 5

Difficulty: BeginnerBeginner

by Guitar+freak+13

tuner correct add songbook print version text version save to e-mail
chordsukulelecavacokeyboardtabbassdrummharmonicsflute Guitar Pro
chords

This Love

Year: 2002 - Album: Songs About Jane

  		
Riff 1 

e|--------------------------------| 
B|--------------------------------| 
G|--------------------------------| 
D|----------5-4-3--3--------------| 
A|-2-2-5-3-----------6-5-------2--| 
E|------------------------3-6-----| 

Riff 2 

e|-------------| 
B|-8-----------| 
G|-8h10p8------| 
D|--------10---| 
A|-------------| 
E|-------------| 

	  

Search Paypal
auto scroll beats size up size down change color hide chords drawings
tab show chords e-chords YouTube Clip e-chords hide all tabs e-chords go to top tab