Maroon 5

Harder To Breathe Tab

Maroon 5

Difficulty: BeginnerBeginner

tuner correct add songbook print version text version save to e-mail
chordsukuleleukulelecavacokeyboardtabbassdrumsharmonicsflute Guitar Pro
close

there isn't a video lesson for this song

request
chords

Harder To Breathe

Year: 2002 - Album: Songs About Jane

  		 
  (Riff 1) 
  E|------------------------------------|		 
  B|-----------?--------------------6-8-| 
  G|-*5-7---5-7----5-7---5-7?--?5?7-----|	   
  D|-----------7--------------7---------|   
  A|------------------------------------| 
  E|------------------------------------| 
 
  E|------------------------------------|		 
  B|-----------?------------------6-8---| 
  G|-5-7---5-7-----5-7---7?--?5?7-------|	   
  D|-----------7------------7-----------|   
  A|------------------------------------| 
  E|------------------------------------| 
 
  E|------------------------------------|		 
  B|-----------?--------------------6-8-| 
  G|-5-7---5-7-----5-7---5-7?--?5?7-----|	   
  D|-----------7--------------7---------|   
  A|------------------------------------| 
  E|------------------------------------| 
 
  E|-------------------------|		 
  B|-----------?-------------| 
  G|-5-7---5-7-----5-7---7---|   
  D|-----------7-------------|   
  A|-------------------------| 
  E|-------------------------| 
                         |REFRÃO| 
  E|---------------------------------------------------|	 
  B|---------------------------------------------------| 
  G|-?-------------------------------------------------|*(repete) Riff 1 
  D|-7~--?-----?---5~----------------------------------|   
  A|?5~--7-7-x-7---3~--5-5-x-5--------3----------------| 
  E|-----5-5-x-5-------3-3-x-3--0-3-5-------0-3-2-0----| 
 
  E|-----------------------------------|		 
  B|-----------?-----------------------| 
  G|--------------------------*5-7...--|	continua desde o (*) no começo   
  D|--7--7/5-5-7-7?7/5-5-7-------------|   
  A|--5----------5---------------------| 
  E|-----------------------------------| 
 
Não tenho muita certeza porque tirei no violão mais ja da pra toca legal..... 
Ai vai a letra...... 
 
How dare you say that my behavior is unacceptable 
So condescending unnecessarily critical 
I have the tendency of getting very physical 
So watch your step cause if I do you'll need a miracle 
 
You drain me dry and make me wonder why I'm even here 
This Double Vision I was seeing is finally clear 
You want to stay but you know very well I want you gone 
Not fit to f***in' tread the ground I'm walking on 
 
When it gets cold outside and you got nobody to love 
You'll understand what I mean when I say 
There's no way we're gonna give up 
And like a little girl cries in the face of a monster that livesin her dreams 
Is there anyone out there cause it's getting harder and harder tobreathe 
Is there anyone out there cause it's getting harder and harder tobreathe 
 
What you are doing is screwing things up inside my head 
You should know better you never listened to a word I said 
Clutching your pillow and writhing in a naked sweat 
Hoping somebody someday will do you like I did 
 
When it gets cold outside and you got nobody to love 
You'll understand what I mean when I say 
There's no way we're gonna give up 
And like a little girl cries in the face of a monster that livesin her dreams 
Is there anyone out there cause it's getting harder and harder tobreathe 
Is there anyone out there cause it's getting harder and harder tobreathe 
 
Does it kill 
Does it burn 
Is it painful to learn 
That it's me that has all the control 
 
Does it thrill 
Does it sting 
When you feel what I bring 
And you wish that you had me to hold
	  

Search Paypal
auto scroll beats size up size down change color hide chords drawings
tab show chords e-chords YouTube Clip e-chords hide all tabs e-chords go to top tab

share with facebook