Michael Jackson

Beat It, Black Or White E Ben (riffs)

Michael Jackson

tabs Beginner beginner

by  VANDCATARINO

save to print version add songbook text version e-mail correct tuner
chordsukulelecavacokeyboardtabbassdrumsharmonicaflute Guitar Pro
close

there isn't a video lesson for this song

chords

Beat It, Black Or White E Ben (riffs)

	  		Beat It 


(Introdução) 

e|-----|-----------------|-----------------|-----------------|-------------| 
B|-----|-----------------|-----------------|-----------------|-------------| 
G|-----|-----------------|-----------------|-----------------|-------------| 
D|-----|-------5-2-----4-|---2-------------|-------5-2-----4-|---2---------| 
A|-----|-----2-----------|-----5---5-------|-----2-----------|-----5-------| 
E|--0--|---3-------------|---------------0-|---3-------------|-------------| 
                                                                                  
e|-----------------------------------|-----------------------| 
B|-----------------------------------|-----------------------| 
G|--x---x-x-12--x-x-12---9-------x-x-|-11---x-x-11---7-------| 
D|--x---x-x-12--x-x-12---9-------x-x-|-12---x-x-12---7-------| 
A|-----------------------------------|-----------------------| 
E|-----------------------------------|-----------------------| 


(Base do Vocal) 

    E5          D5			E5		D5 
e|------------------|-------------|-----------------|-------------| 
B|------------------|-------------|-----------------|-------------| 
G|--x-9-9---9---x-7-|-7---7-------|-x-9-9---9---x-7-|-7---7-------| 
D|--x-9-9---9---x-7-|-7---7-------|-x-9-9---9---x-7-|-7---7-------| 
A|--x-7-7---7---x-5-|-5---5-------|-x-7-7---7---x-5-|-5---5-------| 
E|------------------|-------------|-----------------|-------------| 

   C5	 	   D5			     E5	     D5 
e|-----------------|-------------|-----------------|------------------| 
B|-----------------|-------------|-----------------|------------------| 
G|-x-5-5---5---x-7-|-7---7-------|-x-9-9---9---x-7-|-7---7------------| 
D|-x-5-5---5---x-7-|-7---7-------|-x-9-9---9---x-7-|-7---7------------| 
A|-x-3-3---3---x-5-|-5---5-------|-x-7-7---7---x-5-|-5---5------------| 
E|-----------------|-------------|-----------------|------------------| 




Black or White 


(Riff) 

B|-10-10-10-10-10--9--7-7-7-7-7--9---| 
G|-9--9--9--9--9---9--9-9-9-9-9--9---| 




Ben 

(Introdução) 

e|------1-------------|--------1-------------| 
B|----1--------3-1----|------1--------3-1----| 
G|-2-------2-3-----3--|-2---------2-3-----3--| 
D|--------------------|----------------------| 
A|--------------------|----------------------| 
E|-1------------------|-1--------------------| 


Para visualizar as cifras completas, por favor, acesse as cifras das músicas separadamente. 
		  

Full key step upFull key step up
Half key step upHalf key step up
Half key step downHalf key step down
Full key step downFull key step down
hide glossary

See also:

tabs Yellowcard - Empty Apartment (solo / violino solo) tabs Black Eyed Peas - My humps tabs Michael Jackson - Beat it tabs Michael Jackson - Dirty Diana tabs Michael Jackson - Billie Jean (Fingerstyle) tabs Placebo - Every You, Every Me
e-chords

Other versions:

tabs Michael Jackson - Beat It, Black Or White E Ben (riffs)
auto scroll beats size up size down change color hide chords drawings
tab show chords e-chords YouTube Clip e-chords hide all tabs e-chords go to top tab

share with facebook