Kanye West

Gold digger

Kanye West

bass Expert expert

by  EUROPEU

save to print version add songbook text version e-mail correct tuner
chordsukulelecavacokeyboardtabbassdrumsharmonicaflute Guitar Pro
close

there isn't a video lesson for this song

chords

Gold digger

	  		MAIN BASSLINE 
 
G-------------------------------------------------------------------------------------| 
D-------------------------------------------------------------------------------------| 
A-------------------------------------------4-4-4-4-4-4-4-4-4-4-4-4-4-4-4-4-4-4-4-4---| 
E---4-4-4-4-4-4-4-4-4-4-4-4-4-4-4-4-4-4-4-4-------------------------------------------| 
 
repeat that bassline until the last verse 
 
LAST VERSE BASSLINE 
 
G-------------------------------------------------------------------------------------| 
D-----6-4-4-6-------------6-4-4-6-------------6-4-4-6-------------6-4-4-6-------------| 
A-----------------4-----3-------------4-----3-------------4-----3-------------4-----3-| 
E---4---------4-4---4-4-----------4-4---4-4-----------4-4---4-4-----------4-4---4-4---| 
 
G-----6-4-4-6-------------6-4-4-6-------------6-4-4-6-------------6-4-4-6-------------| 
D-----------------4-----3-------------4-----3-------------4-----3-------------4-----3-| 
A---4---------4-4---4-4-----------4-4---4-4-----------4-4---4-4-----------4-4---4-4---| 
E-------------------------------------------------------------------------------------| 
 
repeat until end. 
 
 

		  

auto scroll beats size up size down change color hide chords drawings
tab show chords e-chords YouTube Clip e-chords hide all tabs e-chords go to top tab

share