Jamiroquai

home > Jamiroquai

Music Of The Mind Bass Tab

Jamiroquai

Difficulty: ExpertExpert

by VsWorld

tuner correct add songbook print version text version save to e-mail
chordsukulelecavacokeyboardtabbassdrumsharmonicsflute Guitar Pro
chords

Music Of The Mind

  		

G---------(4h5)-------------|----------(2h3)-------------| 
D---------------------------|----------------------------| 
A------7--------7-----7---7-|--------5------5----5----5--| 
E--5--------------5-----5---|----3-------------3---3-----| 

G---------(7h8)-----------|----------------------------| 
D------5-------5----5---5-|--------(5h6)---------------| 
A--3-------------3----3---|-----3--------3-----3-----3-| 
E-------------------------|--1--------------1-----1----| 


G-----------4-4--------|-----------2-2---------| 
D----------------------|-----------------------| 
A-----7-7--------7-7---|-----5-5--------5-5----| 
E--5-----------------*-|--3------------------*-| 

G-------------7-7-------|------------------------| 
D--------5-5------3-3---|------------5-5---------| 
A--3-3------------------|-------3-3-------5-5----| 
E---------------------*-|--1-1-----------------*-| 


G--------------7-----------|-------------5-----------| 
D-------7-9-10--10-9-7-9-7-|-------5-7-8---8-7-5-7-5-| 
A--------------------------|-------------------------| 
E--5-5---------------------|--3-3--------------------| 

G--------------5-----------|-------------3-----------| 
D--------5-7-8---8-7-5-7-5-|-------3-5-6---6-5-3-5-3-| 
A--3-3---------------------|-------------------------| 
E--------------------------|--1-1--------------------| 

G-------------------------------------------| 
D------------------------------5--6---------| 
A-----------5------------6--8--------8--6---| 
E--5--7--8-----8--7-------------------------| 
	  

Search Paypal
auto scroll beats size up size down change color hide chords drawings
tab show chords e-chords YouTube Clip e-chords hide all tabs e-chords go to top tab