Jamiroquai

home > Jamiroquai

The Kids Bass Tab

Jamiroquai

Difficulty: nolevelnolevel

by VsWorld

tuner correct add songbook print version text version save to e-mail
chordsukulelecavacokeyboardtabbassdrumsharmonicsflute Guitar Pro
chords

The Kids

  		|----------------------10-10------|---------------------------------| 
|-----------------8---------8-----|---------------------------------| 
|-10-10---10-10-------------------|---------------------------------| 
|---------------------------------|-6---8---6---8---9---6---8---6---| 
 Chorus 
|---------------------------------|---------------------------------| 
|---------------------------------|-----12-12--12-12--10------------| 
|-----------------------5-3------/|/12-------------------12-(0)-----| 
|-5-----3-5-------5---------------|---------------------------------| 

                                   ---------------------------------| 
                                   -------------3-------------------| Chorus always ends 
                                   -----5---3-------6---------------| with this line  
                                   -5-------------------------------| 
 Break 
|-------------|-------------|-------------|--------------------------|-------------|--|--|-------------| 
|-------------|-------------|-------------|--------/10------10-10----|-105--------|--|--|-12--7--5-| 
|-mmmm--------|--------/8--6|-/8----------|-/8-8-8-------/8----------|-------------|--|--|-------------| 
|-------------|-------------|-------------|-----------------------8-|-------------|--|--|-------------| 

********************************************************************* 
 Variations: 
  - The 'b' one is a variation of the first bar, while all the others  
    (1-8) are variations of the second bar. 
 b  
|--------------------(15)-15------| 
|-----------------8---(15)-15-----| 
|-10-10---10-10-------------13----| 
|---------------------------------| 

 1                                    5 
|---------------------------------|  |---------------------------------| 
|----------------/12--8---10--8---|  |-----------------------------8-8-| 
|---------------------------------|  |---------8---7---8---9---10------| 
|-6---8---6---8-------------------|  |-6---8---------------------------| 
 2                                    6 
|---------------------------------|  |-----24----24----24----24--------| 
|-10--10--8--10---11--8---10--8---|  |/15----24----24----24----24------| 
|------------------------------1010  |---------------------------------| 
|---------------------------------|  |---------------------------------| 
 3                                    7 
|---------------------------------|  |---------------------------------| 
|---------------------------------|  |---------------------------------| 
|---------------------------------|  |---------8---7---8---9-----------| 
|-6---8---6---8--/13----/14-----|  |-6---8-------------------/14----| 
 4                                    8 
|-----------------24------24------|  |---------------------------------| 
|--------------------24------24---|  |-8-10----8-12----8h10-8--8-8-----| 
|---------------------------------|  |---------------------------------| 
|-6---8---6---8-------------------|  |---------------------------------| 
	  

Search Paypal
auto scroll beats size up size down change color hide chords drawings
tab show chords e-chords YouTube Clip e-chords hide all tabs e-chords go to top tab