Jamiroquai

home > Jamiroquai

Runaway Bass Tab

Jamiroquai

Difficulty: AdvancedAdvanced

by VsWorld

tuner correct add songbook print version text version save to e-mail
chordsukulelecavacokeyboardtabbassdrumsharmonicsflute Guitar Pro
chords

Runaway

Year: 2006 - Album: High Times: Singles 1992-2006

  		Intro (teclados) 
                                                                    
G |-------|-------|-------|-------|-------|-------|-------|-------| 
D |-------|-------|-------|-------|-------|-------|-------|-------| 
A |-------|-------|-------|-------|-------|-------|-------|-------| 
E |-------|-------|-------|-------|-------|-------|-------|-------| 

Verso 1 
                                                      
--------------------8--7----------------------------| 
-----------------------------10-8-------------------| 
----------------------------------------------------| 
--8--------------------------------------------1----| 
                                                      8x 
--------------------------------------------8-------| 
--------------------------------3-------------------| 
--------3-----------------------------6-------------| 
--4--------4-----3--1-----1-------------------------| 

Refrão 
                                                      
----------------------------------------------------| 
----------------------------------------------------| 
----------------------------------------------------| 
--8--8-----8-----8-----6--8-------------------------| 

                                                      
--------------------------------------------8-------| 
--------------------------------10------------------| 
--------------------------------------6-------------| 
--8--8-----8-----8-----6--8-------------------------| 

                                                      
----------------------------------------------------| 
----------------------------------------------------| 
----------------------------------------------------| 
--4--4-----4-----4-----2--4-------------------------| 

                                                      
----------------------------------------------------| 
--------------------------------6-----------5-------| 
----------------------------------------------------| 
--4--4-----4-----4-----2--4-----------3-------------| 

                                      W  W  W  W      
----------------------------------------------------| 
----------------------------------------------------| 
----------------------------------------------------| 
--1--1-----1-----1-----1--1-----------13L13L13L13---| 

                                      W  W  W  W      
----------------------------------------------------| 
----------------------------------------------------| 
----------------------------------------------------| 
--0--0-----0-----0-----x--0-----------12L12L12L12---| 

                                                      
----------------------------------------------------| 
----------------------------------------------------| 
--6--6-----6-----6-----4--6-----------------4--6----| 
----------------------------------------------------| 

                                            W  W      
-----------------7L-7~-------------------6L-6L-6----| 
----------------------------------------------------| 
--5-----5-----12----------4-----4-----11------------| 
----------------------------------------------------| 

Passagem    
                                                                            
----------------------------------------------------| 
-------------------------------------------------8--| 
----------------------------------------------------| 
--8--------8------------8--------8------------------| 
                                                      4X 
--------------------| 
10L---10L---10~-----| 
--------------------| 
--------------------| 
	  

Search Paypal
auto scroll beats size up size down change color hide chords drawings
tab show chords e-chords YouTube Clip e-chords hide all tabs e-chords go to top tab