Jamiroquai

home > Jamiroquai

Runaway Tab

Jamiroquai

Difficulty: AdvancedAdvanced

by gustsilva

tuner correct add songbook print version text version save to e-mail
chordsukulelecavacokeyboardtabbassdrumsharmonicsflute Guitar Pro
chords

Runaway

Year: 2006 - Album: High Times: Singles 1992-2006

  		Runaway 
Jamiroquai 
High Time: Singles 1992 - 2006 


Intro 
E-------------------------------------------------| 
B-------------------------------------------------| 
G-------------------------------------------------| 
D-------------------------------------------------| 
A------7--8--10----8--10--11----10--8--10---------| 
E--8------------------------------------------8---| 


Verse 
E---------------------------------------------------------| 
B----------5--5--3-3--3-3-3--3-3-4--4-3-3--3-3-3--3-3-----| 
G----------5--5--5-5--5-5-5--5-5-5--5-5-5--5-5-5--5-5-----| 
D----------5--5--5-5--5-5-5--5-5-6--6-6-6--6-6-6--6-6-----| 
A---------------------------------------------------------| 
E---------------------------------------------------------| 
   (Can you dig it)                            (There's something in the 


E------------------------------------------------| 
B--5--5--3-3--3-3-3--3-3-4--4-3-3--3-3-3--3-3----| 
G--5--5--5-5--5-5-5--5-5-5--5-5-5--5-5-5--5-5----| 
D--5--5--5-5--5-5-5--5-5-6--6-6-6--6-6-6--6-6----| 
A------------------------------------------------| 
E------------------------------------------------| 
   air tonight)       (Got a one way 


E------------------------------------------------| 
B--5--5--3-3--3-3-3--3-3-4--4-3-3--3-3-3--3-3----| 
G--5--5--5-5--5-5-5--5-5-5--5-5-5--5-5-5--5-5----| 
D--5--5--5-5--5-5-5--5-5-6--6-6-6--6-6-6--6-6----| 
A------------------------------------------------| 
E------------------------------------------------| 
     ticket)           (Baby don't you 


E------------------------------------------------| 
B--5--5--3-3--3-3-3--3-3-4--4-3-3--3-3-3--3-3----| 
G--5--5--5-5--5-5-5--5-5-5--5-5-5--5-5-5--5-5----| 
D--5--5--5-5--5-5-5--5-5-6--6-6-6--6-6-6--6-6----| 
A------------------------------------------------| 
E------------------------------------------------| 
  wanna ride?)        (Got to 

E------------------------------------------------| 
B--5--5--3-3--3-3-3--3-3-4--4-3-3--3-3-3--3-3----| 
G--5--5--5-5--5-5-5--5-5-5--5-5-5--5-5-5--5-5----| 
D--5--5--5-5--5-5-5--5-5-6--6-6-6--6-6-6--6-6----| 
A------------------------------------------------| 
E------------------------------------------------| 
   make it)            (Make it to the 

E------------------------------------------------| 
B--5--5--3-3--3-3-3--3-3-4--4-3-3--3-3-3--3-3----| 
G--5--5--5-5--5-5-5--5-5-5--5-5-5--5-5-5--5-5----| 
D--5--5--5-5--5-5-5--5-5-6--6-6-6--6-6-6--6-6----| 
A------------------------------------------------| 
E------------------------------------------------| 
   other side)         (I've got 

E------------------------------------------------| 
B--5--5--3-3--3-3-3--3-3-4--4-3-3--3-3-3--3-3----| 
G--5--5--5-5--5-5-5--5-5-5--5-5-5--5-5-5--5-5----| 
D--5--5--5-5--5-5-5--5-5-6--6-6-6--6-6-6--6-6----| 
A------------------------------------------------| 
E------------------------------------------------| 
   demons)            (Snapping at my 

E--------------------------------------------| 
B--5--5--3-3--3-3-3--3-3-4--4-3-3--3-3-3-----| 
G--5--5--5-5--5-5-5--5-5-5--5-5-5--5-5-5-----| 
D--5--5--5-5--5-5-5--5-5-6--6-6-6--6-6-6-----| 
A--------------------------------------------| 
E--------------------------------------------| 
   heels tonight) 


Chorus 
E-------------------------------------------------| 
B--13-13--13-13-13-------- 13-13--13-13-13--------| 
G--12-12--12-12-12-------- 12-12--12-12-12--------| 
D--13-13--13-13-13---/13-- 13-13--13-13-13--/13---| 
A-------------------------------------------------| 
E-------------------------------------------------| 
    (I just             want to 

E-------------------------------------------------| 
B--13-13--13-13-13-------- 13-13--13-13-13--------| 
G--12-12--12-12-12-------- 12-12--12-12-12--------| 
D--13-13--13-13-13---/13-- 13-13--13-13-13--/13---| 
A-------------------------------------------------| 
E-------------------------------------------------| 
     run away) 

E-----------------------------------------------| 
B--13-13--13-13-13-------- 13-13--13-13-13------| 
G--12-12--12-12-12-------- 12-12--12-12-12------| 
D--13-13--13-13-13---/13-- 13-13--13-13-13--/13-| 
A-----------------------------------------------| 
E-----------------------------------------------| 
    (Got people around     running me down 

E-----------------------------------------------| 
B--13-13--13-13-13-------- 13-13--13-13-13------| 
G--12-12--12-12-12-------- 12-12--12-12-12------| 
D--13-13--13-13-13---/13-- 13-13--13-13-13--/13-| 
A-----------------------------------------------| 
E-----------------------------------------------| 
     I can't stay) 

E-----------------------------------------------| 
B--13-13--13-13-13-------- 13-13--13-13-13------| 
G--12-12--12-12-12-------- 12-12--12-12-12------| 
D--13-13--13-13-13---/13-- 13-13--13-13-13--/13-| 
A-----------------------------------------------| 
E-----------------------------------------------| 
     (I just         want to 

E-----------------------------------------------| 
B--13-13--13-13-13-------- 13-13--13-13-13------| 
G--12-12--12-12-12-------- 12-12--12-12-12------| 
D--13-13--13-13-13---/13-- 13-13--13-13-13--/13-| 
A-----------------------------------------------| 
E-----------------------------------------------| 
     get away) 

E-------------------------------------------------| 
B--13-13--13-13-13-------- 13-13--13-13-13--------| 
G--12-12--12-12-12-------- 12-12--12-12-12--------| 
D--13-13--13-13-13---/13-- 13-13--13-13-13--/13---| 
A-------------------------------------------------| 
E-------------------------------------------------| 
    (Get them           off my 

E------------------------------------------| 
B--13-13--13-13-13-------- 13-13--13-13-13-| 
G--12-12--12-12-12-------- 12-12--12-12-12-| 
D--13-13--13-13-13---/13-- 13-13--13-13-13-| 
A------------------------------------------| 
E------------------------------------------| 
     back today) 


verse 2 (same as Verse) 
Can you feel it? I'm stuck inside a hurricane 
Chasing rainbows, can't you see I'm going insane? 
I wanna be a free man but I'm spinning on this crazy wheel 
I'm jumping for the high bar, can't you dig it? 
No longer know what I feel, can't you see? 


Chorus (same as Chorus) 
I just want to run away, turn me loose 
Got people around running me down, I can't stay 
I just want to get away, I just want to get away now 
Get them off my back today 
I just wanna run away 


Bridge 
E-----------------------------------------------| 
B-----------------------------------------------| 
G-----------------------------------------------| 
D--------------8 h 10---------------8-10 b 11---| 
A-----------------------------------------------| 
E-8-8-x-8--8----------8-8-x-8--8----------------| 

E----------------------------------------------| 
B----------------------------------------------| 
G----------------------------------------------| 
D--------------8 h 10---------------8 h 10\ ---| 
A----------------------------------------------| 
E-8-8-x-8--8----------8-8-x-8--8---------------| 


Chorus 



....... and that's it! :) 
Tabbed by telung ([email protected]) 


Appendix 
8 h 10 = 8th fret, hammer on to 10th fret 
10 b 11 = 10th fret, bend string to get the 11th fret note 
/13 = slide up from any fret, ends on the 13th fret 
10\ = slide down from the 10th fret 
x = strike string muted with the fretting hand 
	  

Search Paypal
auto scroll beats size up size down change color hide chords drawings
tab show chords e-chords YouTube Clip e-chords hide all tabs e-chords go to top tab