Gorillaz

home > Gorillaz

Clint Eastwood Bass Tab

Gorillaz

Difficulty: BeginnerBeginner

tuner correct add songbook print version text version save to e-mail
chordsukulelecavacokeyboardtabbassdrummharmonicsflute Guitar Pro
chords

Clint Eastwood

	  

(it may be tuned down 1/2 step but I'm not sure)

part you may play during cymbal crashes
G-------------------
D-------------------
A-----5-5-5-5-------
E-------------------

G| ------------------------------
D| ------------------------------
A| -----7-7---7---------7-7------
E| --0~----7~-------0~-----8~-7--

G| ------------------------------
D| ------------------------------
A| -----7-7---7---------7-7------
E| --0~----7~-------0~-----8~-7--

G| ------------------------------
D| ------------------------------
A| -----7-7---7---------7-7------
E| --0~----7~-------0~-----8~-7--

and that's it

	  

there isn't a video lesson for this song

request
Search
auto scroll beats size up size down change color hide chords drawings
tab show chords e-chords YouTube Clip e-chords hide all tabs e-chords go to top tab