Guns N' Roses

Welcome To The Jungle (ver. 2) Bass Tab

Guns N' Roses

Difficulty: EasyEasy

tuner correct add songbook print version text version save to e-mail
chordsukulelecavacokeyboardtabbassdrumsharmonicsflute Guitar Pro
close

there isn't a video lesson for this song

request
chords

Welcome To The Jungle (ver. 2)

  		

 
 
ALBUM: Appetite For Destruction
TABBED BY: Matt Stainer ([email protected])

For the album the tuning is dropped half a step on each string

INTRO:

|----------------|----------------|7/3--------------|-----------------|
|----------------|----------------|--------------5h6|7----------------|
|7h9-------------|7---------------|-----------------|--------------7h8|
|----------------|----------------|-----------------|-----------------|

|----------------|----------------|----------------|----------------|
|----------------|----------------|7/2-------------|5-------0------2|
|9---------------|7---------------|----------------|----------------|
|----------------|----------------|----------------|----------------|

|----------------|----------------|
|2-2-2-2-2-2-2-2-|-2--------------|
|----------------|-------------5/0|
|----------------|----2-3-4-4-0---|

|----3-3---3-2-0-|----3-3---3-2-0-|----3-3---3-2-0-|---3-3--------|
|0-0-----0-------|0-0-----0-------|0-0-----0-------|0-0----0------|
|----------------|----------------|----------------|---------5-4-5|
|----------------|----------------|----------------|--------------|

VERSE:

|---3-3---3-2-0|
|0-0----0------|
|--------------|
|--------------|    x4

|----------------|
|------------4-2-|
|2-2-0-0-2-0-----|
|----------------|    x4

CHORUS:

|----------------|----------------|
|3----------0-3-0|5---------------|
|----------------|----------------|
|----------------|----------------|

|-------------3-0|
|--------1-1-0---|
|2-2-0-0---------|
|----------------|     x3

|------------3--0|
|------1--0------|
|2--0------------|
|----------------|

VERSE:

|---3-3---3-2-0|
|0-0----0------|
|---------------|
|---------------|    x4

|----------------|
|------------4-2-|
|2-2-0-0-2-0-----|
|----------------|    x4

CHORUS:

|----------------|----------------|
|3----------0-3-0|5---------------|
|----------------|----------------|
|----------------|----------------|

|-------------3-0|
|--------1-1-0---|
|2-2-0-0---------|
|----------------|     x3

|----------------|
|----------------|
|----------------|
|4--4--4---------|

GUITAR SOLO 1:

|0----0------0--|0-----0---------|
|--4h5---7-7--7-|--4h5-----7-7-7-|
|---------------|----------------|
|---------------|----------------|   x4

VERSE:

|---3-3---3-2-0|
|0-0----0------|
|--------------|
|--------------|    x4

|----------------|
|------------4-2-|
|2-2-0-0-2-0-----|
|----------------|    x4

CHORUS:

|----------------|----------------|
|3----------0-3-0|5---------------|
|----------------|----------------|
|----------------|----------------|

|-------------3-0|
|--------1-1-0---|
|2-2-0-0---------|
|----------------|     x3

|------------3--0|
|------1--0------|
|2--0------------|
|----------------|

BRIDGE: 

|----------------|----------------|
|5---------------|/10-------------|
|----------------|----------------|
|----------------|----------------|   x3

|---------------|3-3-3-3-3-1----|3-3-3-3-3-1----|3-3-3-3-3-1----|----------------|
|5--------------|---------------|---------------|---------------|----------------|
|---------------|---------------|---------------|---------------|------------4-2-|
|---------------|---------------|---------------|---------------|2-2-2-2-0-0-----|

GUITAR SOLO 2:

|0----0------0--|0-----0---------|
|--4h5---7-7--7-|--4h5-----7-7-7-|
|---------------|----------------|
|---------------|----------------|   x2

|---------------|----------------|
|4-2-4-----4-2-4|2-0-2------2-0-2|
|---------------|----------------|
|---------------|----------------|    x3

|0---------------|-------------2-4|-------2--------|--------2----5-4|
|----------------|----------------|2-2-0---0-2-----|2-2-0---0-2-----|
|----------------|----------------|----------------|----------------|
|----------------|----------------|----------------|----------------|    

|----------------|----------------|-------2--------|-------2---0-0-2|
|-------2--------|-------2---0-1--|2-2-0---0-2-----|2-2-0----0------|
|2-2-0---0-2-----|2-2-0---0-------|----------------|----------------|
|----------------|----------------|----------------|----------------|

|2-2-2-2-2-2-2-2-|----------------|----------------|----------------|
|----------------|----------------|2---------------|2/14------------|
|----------------|4-4-4-4-4-4-4-4-|----------------|----------------|
|----------------|----------------|----------------|----------------|

|0-0-1-1-2-2-1-2-3|5-5-4-4-5-5-4-5-6|
|-----------------|-----------------|
|-----------------|-----------------|
|-----------------|-----------------|

|-----------------|
|7-7-6-6-5-5-4-3-2|
|-----------------|
|-----------------|      x10

|2---1---2---3---|5---4---5---6---|
|----------------|----------------|
|----------------|----------------|
|----------------|----------------|

CHORUS:

|----------------|----------------|
|3----------0-3-0|5---------------|
|----------------|----------------|
|----------------|----------------|

|-------------3-0-|
|--------1-1-0----|
|2-2-0-0----------|
|-----------------|     x2

|----------------|----------------|
|3----------0-3-0|5---------------|
|----------------|----------------|
|----------------|----------------|

|-------------3-0-|
|--------1-1-0----|
|2-2-0-0----------|
|-----------------|     x2

|----------------|----------------|
|3----------0-3-0|5---------------|
|----------------|----------------|
|----------------|----------------|

|-------------3-0-|
|--------1-1-0----|
|2-2-0-0----------|
|-----------------|     x2

|----------------|----------------|
|3----------0-3-0|5---------------|
|----------------|----------------|
|----------------|----------------|

|-------3-0--3-0-|0---------------|
|----1-0----0----|7---------------|
|2-0-------------|----------------|
|----------------|----------------|

	  

Search Paypal
auto scroll beats size up size down change color hide chords drawings
tab show chords e-chords YouTube Clip e-chords hide all tabs e-chords go to top tab

share with facebook