Guns N' Roses

home > Guns N' Roses

Welcome to The Jungle Bass Tab

Guns N' Roses

Difficulty: BeginnerBeginner

tuner correct add songbook print version text version save to e-mail
chordsukulelecavacokeyboardtabbassdrummharmonicsflute Guitar Pro
chords

Welcome to The Jungle

Year: 1987 - Album: Greatest Hits

(Guns N' Roses)

  		
GUNS N'  ROSES - -Appetite For Destruction

Intro:
G|----------------------1-2-3333-|
D|------1--------------3---------|
A|-1-----1--4-111111111----------|
E|---4-2---4-4-------------------|

Verse:
G|-1-1-1-1-1-----1-1-1-1-1------------------------------------|
D|----4-----4-3-1---4-----4-3--1-1-1-1-1-1-----1-1-1-1-1------|
A|----------------------------------4-----4-3-1---4-----4-3-1-|
E|------------------------------------------------------------|

Chorus:
G|----------------------------------------------|
D|------------------1-1-----------1-1-----------|
A|-22222-2-44444444----4-4-0---------4-4-0------|
E|------4-4-----------------4-3-0---------4-3-0-|

Bridge1:
G|-------------------------|
D|-11111-----11111---11111-|
A|------1-3-1-----1-1------|
E|-----------------4-------|

Bridge2:
G|------------------------------------------------------------|
D|-----------4-3---------4-3----------------------------------|
A|----4-----4---4---2-3-4---4---------------------------------|
E|-2-----2-------2-4---------22222-0-22222-0-22222-0-44444444-|

Bridge3:
G|---------------------------------------------------------|
D|-11111-----11111-4-1-4-11111----1------------------------|
A|------1-3-4-----------------3-33-3-4-1-1111-0-1-2-3-3333-|
E|---------------------------------------------------------|

G|-----------------------------------------------------------------------|
D|-111111111111111-----------------111111111111111-----------------------|
A|----------------0-111111111111111---------------0-1111111111111111-----|
E|------------------------------------------------------------------0-02-|

G|--------------------------------------------------------------|
D|----------------11110000--------11110000----------------------|
A|------------------------44332211--------4432211-------------1-|
E|-00-11-22-33-4-5-------------------------------1-0-1-3-4-3-4--|

G|----------------------|
D|-1----------------1>>-|
A|--4-0-----------------|
E|-----4-3-0-4-3-0------|

	  

Search Paypal
auto scroll beats size up size down change color hide chords drawings
tab show chords e-chords YouTube Clip e-chords hide all tabs e-chords go to top tab