Good Charlotte

home > Good Charlotte

The Motivation Proclamation Bass Tab

Good Charlotte

Difficulty: nolevelnolevel

tuner correct add songbook print version text version save to e-mail
chordsukulelecavacokeyboardtabbassdrumsharmonicsflute Guitar Pro
chords

The Motivation Proclamation

  		



Written By: 
 Motivation Proclamation
Tabbed By: Adam Doogan-Smith
E-mail: [email protected]

Standard Tuning: E,A,D,G
/=Slide up

Chorus #1
G-----------------------------I
D-----------0-0---------------I
A-------3-3-----3-3-3-3-2-0---I
E---3-3-----------------------I

Chorus #2
G-------------------------I
D-------------0000--------I
A--------3333------3333---I
E---3333------------------I

Verse
G-------------------------I
D---------------------0---I
A-------3-3--2-2--3-3-----I
E---3-3-------------------I

Riff #1
G----------------------------------------------------------I
D---0-000-------------0-000-------------0-0----------------I
A---------3-333-0-000-------3-333-0-000-----3-3-2-2--------I
E---------------------------------------------------5-5/0--I

Riff #2
G---4/5-4-2-0---I
D---------------I
A---------------I
E---------------I

Riff #3
G--------------------------------------------------------------------------I
D------------00000000-----------000000-------------------------------------I
A---33333333----------33333333---------5555555-5/17-17-17-17-17-17-17-17---I
E--------------------------------------------------------------------------I



Chorus #1   x2
Chorus #2   x2
Verse       x4
Riff #1     x1
Chorus #1   x2
Chorus #2   x2
Riff #2     x1
Chorus #2   x4
Riff #3     x1
Chorus #2   x4
End         x1

	  

Search Paypal
auto scroll beats size up size down change color hide chords drawings
tab show chords e-chords YouTube Clip e-chords hide all tabs e-chords go to top tab