Good Charlotte

home > Good Charlotte

The Motivation Proclamation (ver. 2) Bass Tab

Good Charlotte

Difficulty: nolevelnolevel

tuner correct add songbook print version text version save to e-mail
chordsukulelecavacokeyboardtabbassdrumsharmonicsflute Guitar Pro
chords

The Motivation Proclamation (ver. 2)

  		

-Motivation Proclamation
Standard Tuning (E,A,D,G)
Tabbed By: GCaddict

Intro (no bass)

KEY: 
h-hammer one
*: hold note
/:slide up
\: slide down

Chorus
G | --------------------------------------------------
D | ----------------------------------------------------4x
A | ---------------------------------------------------
E | --33------88------10-10---8888-7-5-3----

Verse
G | -------------------------------------------------------
D | -------------------------------------------------------
A | --------------------------------------------------------4x
E | --33-3/8-8-8h10-10-10-10\8-7-5-3-----------

Pre-Chorus
G | ------------------------------------------------------------------------------
D | -------------------------------------------------------------------------------
A | ------------------------------------------------------------------------------1x
E | ----10*--5*-8*-10*-5*-8*-10(4x)-8(4x)-7(5x)-10\3--------------

Chorus
G | --------------------------------------------------
D | ----------------------------------------------------4x
A | ---------------------------------------------------
E | --33------88------10-10---8888-7-5-3----

Solo
G | -------------------------------------------------------
D | -------------------------------------------------------
A | --------------------------------------------------------4x
E | --33-3/8-8-8h10-10-10-10\8-7-5-3-----------

Pre Chorus.
G | ------------------------------------------------------------------------------
D | -------------------------------------------------------------------------------
A | ------------------------------------------------------------------------------1x
E | --8*-10(4x)-8(4x)-7(5x)-10\3-----------------------------------------

Chorus
G | --------------------------------------------------
D | ----------------------------------------------------8x
A | ---------------------------------------------------
E | --33------88------10-10---8888-7-5-3----

Ending
G | --------------------------------------------------------------------
D | --------------------------------------------------------------------
A | ---------------------------------------------------------------------1x
E | -33(cut off)-33(cut off)--33(cut off)---8888-7-5-3-----

	  

Search Paypal
auto scroll beats size up size down change color hide chords drawings
tab show chords e-chords YouTube Clip e-chords hide all tabs e-chords go to top tab