Good Charlotte

home > Good Charlotte

Lifestyles Of The Rich & Famous Bass Tab

Good Charlotte

Difficulty: nolevelnolevel

tuner correct add songbook print version text version save to e-mail
chordsukulelecavacokeyboardtabbassdrumsharmonicsflute Guitar Pro
chords

Lifestyles Of The Rich & Famous

  		

Lifestyles of the rich and famous
Tabbed by Danny182
*=palm muted

Verse(guitar does it once and bass comes in on second time round)
|-------------------------------------| 
|-----------------44******------------|    
|-44******66******--------44******----| x1
|-------------------------------------|

Pre-Chorus
|-------------------------------------| x 2
|-------------------------------------|
|-11111111--------44444444------------|
|---------22222222--------44444444----|

|-------------| x 1
|-------------|
|-------------|
|-22222222----|

Chorus
|------------------------------------| x 2
|-----------------44444444-----------|
|-4444444466666666--------4444444----|
|------------------------------------|

Verse
|-------------------------------------| x 2|----|
|-----------------44******------------|    |----|
|-44******66******--------44******----|    |----|
|-------------------------------------|    |-9\-|

Pre-Chorus
|-------------------------------------| x 2
|-------------------------------------|
|-11111111--------44444444-3-4-3-1-3--|
|---------22222222--------4-4---------|

|-------------| x 1
|-------------|
|-------------|
|-22222222----|

Chorus
|-----------------------------------------| x 2
|-----------------------------------------|
|-4444444466666666--------44444444--------|
|-----------------22222222----------------|

|-----------|x 1
|-----------|
|-----------|
|-22222222--|

Bridge
|-------------| x 7
|-------------|
|-44444444----|
|-------------|

Ending
|----------------------------------| x 2
|----------------------------------|
|-4-44-4~-6-66-6~--------4-44-4~---|
|----------------2-22-2~-----------|

|-------------------------------------| x1
|-------------------------------------|
|-4444444466666666--------44444444----|
|-----------------22222222------------|

|---------------------| x3
|---------------------|
|---------44444444----|
|-22222222------------|

|-------------| x1
|-------------|
|-44444444----|
|-------------|

Thats it! simple please rate this tab as it is the only one that is right

	  

Search Paypal
auto scroll beats size up size down change color hide chords drawings
tab show chords e-chords YouTube Clip e-chords hide all tabs e-chords go to top tab