Good Charlotte

home > Good Charlotte

The Motivation Proclamation (ver. 3) Bass Tab

Good Charlotte

Difficulty: nolevelnolevel

tuner correct add songbook print version text version save to e-mail
chordsukulelecavacokeyboardtabbassdrumsharmonicsflute Guitar Pro
chords

The Motivation Proclamation (ver. 3)

  		


"Motivation Proclamation"
Tabbed By Adam

Bass starts at 0:40

CHORUS ("Motivate me...")
G--------------------------------------|
D--------------------------------------|
A----------33-----55-----3-3-3-3-2-0---| (x2)
E--33----------------------------------|

("If I fall down...")
G-----------------------|
D-----------------------|
A-------3333-5555-3333--| (x2)
E--3333-----------------|

VERSE ("Realistic and narcissitic...")
G------------------|
D------------------|
A------3---2---3---| (x4)
E--3---------------|

PRE-CHORUS ("I never said...")
G-----------------------------|
D-----------------------------|
A--5--5-5---3--3-3---0--0-0---| (x2)
E-----------------------------|

G-----------|
D-----------|
A--5-5-5-5--|
E-----------|

CHORUS

GUITAR SOLO
G-----------------------|
D-----------------------|
A-------3333-5555-3333--| (x4)
E--3333-----------------|

BREAK ("Cause everything...")
G-----------------------|
D-----------------------|
A--0000-5555-3333-5555--|
E-----------------------|

("Yeah, yeah...")
G-----------77777777--|
D---------------------|
A--55555555-----------|
E---------------------|

ENDING ("Motivate me...")
G-----------------------|
D-----------------------|
A-------3333-5555-3333--| (x4)
E--3333-----------------|

G------------------------------------|
D------------------------------------|
A----------------------3-3-3-3-2-0---|
E--33-xx-333-xx-333-xx-------------3-|

Questions, comments, requests...E-Mail me at
[email protected]

	  

Search Paypal
auto scroll beats size up size down change color hide chords drawings
tab show chords e-chords YouTube Clip e-chords hide all tabs e-chords go to top tab