Good Charlotte

home > Good Charlotte

Seasons Bass Tab

Good Charlotte

Difficulty: nolevelnolevel

tuner correct add songbook print version text version save to e-mail
chordsukulelecavacokeyboardtabbassdrummharmonicsflute Guitar Pro
chords

Seasons

  		

 
 
Album: Good Charlotte
Tabbed by: greendaypunk

Intro: 
G|----- 
D|----- 
A|----- 
E|-3/0- 

Riff 1: 
G|---------------------------------------------------------------------- 
D|---------------------------------------------------------------------- 
A|-3--3-3-3-3-3-3-3-3-3-----------------------------------------------3- 
E|----------------------0-3--3-3-3-3-3-3-3-3-3-0-1--1-1-1-1-1-1-1-1-1--- 

G|--------------------- 
D|--------------------- 
A|-3-3-3-(2)----------- 
E|-----------3-3-3-3-3- 

Mid 1: 
G|------------------------------------------------- 
D|-----------------------------------3--/5-5-5-5-5- 
A|-0-----0-----0----------------------------------- 
E|----0-----0-----0--3-3-3-3-3-3-3-3--------------- 

Riff 2: 
G|------------------------------------------------------------------- 
D|------------------------------------------------------------------- 
A|-3-3-3-3-3-3-3-3-3-3----------------------------------------------- 
E|---------------------0-3--3-3-3-3-3-3-3-3-3-0-1--1-1-1-1-1-1-1-1-1- 

G|--------------------- 
D|--------------------- 
A|-3-3-5-3-5----------- 
E|-----------3-3-3-3-3- 

Mid 2: 
G|--------------------------------------------------------------------- 
D|--------------------------------------------------------------------- 
A|-3--------------3--3-3-3-3-3-3-3------------------------------------- 
E|----3--5--1--3-------------------3--3-3-3-3-3-3-0--0-0-0-0-0-0-1-1-1- 

G|--------------------- 
D|--------------------- 
A|--------------------- 
E|-1-1-1-3-3-3-3-3-3-3- 

Ending: 
G|--- 
D|--- 
A|-3- 
E|--- 


Song Order:
Intro     x 1
Riff 1    x 2 
Mid 1     x 1
Riff 2    x 1
Riff 1    x 1
Mid 2     x 1
Riff 1    x 3 
Riff 2    x 1
Ending    x 1 

thats it

	  

Search Paypal
auto scroll beats size up size down change color hide chords drawings
tab show chords e-chords YouTube Clip e-chords hide all tabs e-chords go to top tab