Good Charlotte

home > Good Charlotte

Seasons (ver. 3) Bass Tab

Good Charlotte

Difficulty: nolevelnolevel

tuner correct add songbook print version text version save to e-mail
chordsukulelecavacokeyboardtabbassdrumsharmonicsflute Guitar Pro
chords

Seasons (ver. 3)

  		

Band: 
 

tabbed by: elibailey ([email protected])
Comments, Questions Welcome.

tuning: standard (E-A-D-G)

Verse
G|-----------------------------------------------------------------------|
D|-----------------------------------------------------------------------|
A|-3---------------------------------------------------------------------|
E|---3-1-3---------------------------------------------------------------|

Pre Chorus
G|---------------------3/5-5-5-5-5-5-------------------------------------|
D|-----------------------------------------------------------------------|
A|-0---------------------------------------------------------------------|
E|---0-3-3-3-3-3-3-3-3---------------------------------------------------|

Chorus
G|-----------------------------------------------------------------------|
D|-----------------------------------------------------------------------|
A|-3---------------------------------------------------------------------|
E|---3-1-3---------------------------------------------------------------|

	  

Search Paypal
auto scroll beats size up size down change color hide chords drawings
tab show chords e-chords YouTube Clip e-chords hide all tabs e-chords go to top tab