Edguy

home > Edguy

Key To My Fate Bass Tab

Edguy

Difficulty: nolevelnolevel

by eduardo%5Flyvio

tuner correct add songbook print version text version save to e-mail
chordsukulelecavacokeyboardtabbassdrumsharmonicsflute Guitar Pro
chords

Key To My Fate

(Edguy)

  		  
Intro  
  
G-----------|--  
D-----------|--  
A--3*-------|--  
E-----1*-4*-|--  
                                                                                
  
Vocals I  
  
G-----------||--  
D-----------||--  
A--3*-------||--  
E-----6*-3*-||--  
                                                                                
Vocals II  
  
G-----------||--  
D-----------||--  
A--3*-------||--  
E-----1*-4*-||--  
                                                                                
Pre-Chorus  
  
G-----||--  
D-----||--  
A--3*-||--  
E-----||--  
            
Chorus                                                                      
  
G--------------------------||--  
D--3*----------------------||--  
A-----6*-4*-6-4--3*--6*----||--  
E-----------------------6*-||--  
                                                                                
Repeat everything.  
  
Solo I  
  
G-----------------||-----|--  
D-----------------||-----|--  
A---8*--6*--5*--4*||--3*-|--  
E-----------------||-----|--  
                                                                                
Solo II  
  
G----|-----|-----------------------------------------|--  
D----|-----|--------------8-7---------8-7------8-7---|--  
A--8-|-6-8-|--8--10*--10-------8--10------8-10-----8-|--  
E----|-----|-----------------------------------------|--  
                                                                                
Solo III  
  
G---------|--  
D---------|--  
A---------|--  
E--1*--3*-|--  
                                                                                
Vocals III  
  
G----|------|-----|---------------------|----------------|--  
D----|------|-----|-------6-5-6-8-6-5---|----------------|--  
A--8-|--6-8-|--6*-|-8*--8-------------6-|-8*--6*--4*--3*-|--  
E----|------|-----|---------------------|----------------|--                                                                                
  
Repeat Chorus, and then:  
  
G-----|--  
D-----|--  
A-----|--  
E--1--|--  
  
End.  


	  

Search Paypal
auto scroll beats size up size down change color hide chords drawings
tab show chords e-chords YouTube Clip e-chords hide all tabs e-chords go to top tab