Edguy

home > Edguy

Power & Majesty Bass Tab

Edguy

Difficulty: nolevelnolevel

by eduardo%5Flyvio

tuner correct add songbook print version text version save to e-mail
chordsukulelecavacokeyboardtabbassdrumsharmonicsflute Guitar Pro
chords

Power & Majesty

(Edguy)

  		Transcribed by: AndrČ Baida from Brazil! 
Email: [email protected] 
 
Intro. 
 
G--------------------------||-- 
D--------------------------||-- 
A----3-----3---------6--5--||-- 
E--3-----3-----3-4---------||-- 
                                                                               
Riff 1. 
 
G---------------------------------------------------------------------------- 
D---------------------------------------------------------------------------- 
A----3-3-3-3-3-3-3-3-3-3-3-3-----3-3-3-3-3-3-3-3-3-3-3-3--------------------- 
E--3---------------------------3-------------------------3-4-4-4-4-4-4-4-4-4- 
         					Second part only                                                                      
G-------------------------------||----------||-- 
D-------------------------------||----------||-- 
A-------6-6-6-6-6-6-5-5-5-5-5-5-||-3-----3--||-- 
E-4-4-4-------------------------||----------||-- 
                                                                               
Vocals. 2X. 
 
G--------------------------------------|-------------------------------------|- 
D--------------------------------------|-------------------------------------|- 
A------3-3-3-3-6-6-6-6-5-5-5-5-5-5-6-5-|-3-3-3-3-6-6-6-6---------------------|- 
E--4-6---------------------------------|-----------------4-4-4-4-4-4-4-4-6-6-|- 
            
Bridge. 
                                                                    
G--------------------------------------||-- 
D--------------------------------------||-- 
A--------------------------------------||-- 
E--3-3-3-3-3-3-3-3-3-3-3-3-3-3-3-3-3-3-||-- 
 
Chorus. 2X. 
 
G---------------------------------------------------------------------------- 
D---------------------------------------------------------------------------- 
A----3-3-3-3-3-3-3-3-3-3-3-3-----3-3-3-3-3-3-3-3-3-3-3-3--------------------- 
E--3---------------------------3-------------------------3-4-4-4-4-4-4-4-4-4- 
						Second part only                                                                               
G-------------------------------||----------||-- 
D-------------------------------||----------||-- 
A-------6-6-6-6-6-6-5-5-5-5-5-5-||-3-----3--||-- 
E-4-4-4-------------------------||----------||-- 
 
Repeat Vocals, Bridge and Chorus. 
                                                                    
Pre Solo. 
 
G----|----|----|----|-- 
D----|----|----|----|-- 
A----|----|----|----|-- 
E--1-|--4-|--3-|--3-|-- 
                                                                               
Pre Solo 2. (Listen the music to figured it out) 
 
G----------------------------------------------------------------||-- 
D----------------------------------------------------------------||-- 
A----------------------------------------------------------------||-- 
E--1-1-1-1-1-1-1-4-4-4-4-4-4-4-4-3-3-3-3-3-3-3-3-3-3-3-3-3-3-3-3-||-- 
                                                                               
Solo 
 
G------------------------------------------------------------------------------ 
D------------------------------------------------------------------------------ 
A--3-3-3-3-3-3-3-3-3-3-3-3-------------------------3-3-3-3-3-3-3-3-3-3-3-3-6--- 
E--------------------------3-3-3-3-3-3-3-3-3-3-3-3----------------------------- 
                                                                              
G-----------------------||-- 
D-----------------------||-- 
A-6-6-6-6-6-5-5-5-5-5-5-||-- 
E-----------------------||-- 
                                                                               
Repeat Bridge and Chorus. 
 
Repeat Bridge 2 times, and then: 
 
G---------------------------------------------------------------------------- 
D---------------------------------------------------------------------------- 
A----3-3-3-3-3-3-3-3-3-3-3-3-----3-3-3-3-3-3-3-3-3-3-3-3--------------------- 
E--3---------------------------3-------------------------3-4-4-4-4-4-4-4-4-4- 
						Second part only                                                                               
G-------------------------------||----------||-- 
D-------------------------------||----------||-- 
A-------6-6-6-6-6-6-5-5-5-5-5-5-||-3-----3--||-- 
E-4-4-4-------------------------||-----3----||-- 
  
End. 
	  

Search Paypal
auto scroll beats size up size down change color hide chords drawings
tab show chords e-chords YouTube Clip e-chords hide all tabs e-chords go to top tab