Edguy

home > Edguy

Wake up the king Bass Tab

Edguy

Difficulty: nolevelnolevel

by gustsilva

tuner correct add songbook print version text version save to e-mail
chordsukulelecavacokeyboardtabbassdrumsharmonicsflute Guitar Pro
chords

Wake up the king

  		
   Intro 
G|--------|-------------|--------|-------------|--------|--------|--------|--------| 
D|--------|-------------|--------|-------------|--------|--------|--------|--------| 
A|-5------|-5-----7-----|-0------|-0------2----|--------|--------|-5------|-0------| 
E|--------|-------------|--------|-------------|-0------|-0------|--------|--------| 


G|-------------------------------------------------|-------------------------------------------------| 
D|-------------------------------------------------|-------------------------------------------------| 
A|-5--5--5--5--5--5--5--5--5--5--5--5--5--5--5--5--|-5--5--5--5--5--5--5--5--7--7--7--7--7--7--7--7--| 
E|-------------------------------------------------|-------------------------------------------------| 


G|-------------------------------------------------|-------------------------------------------------| 
D|-------------------------------------------------|-------------------------------------------------| 
A|-0--0--0--0--0--0--0--0--0--0--0--0--0--0--0--0--|-0--0--0--0--0--0--0--0--0--0--0--0--2--2--2--2--| 
E|-------------------------------------------------|-------------------------------------------------| 


G|-------------------------------------------------|-------------------------------------------------| 
D|-------------------------------------------------|-------------------------------------------------| 
A|-------------------------------------------------|-------------------------------------------------| 
E|-0--0--0--0--0--0--0--0--0--0--0--0--0--0--0--0--|-0--0--0--0--0--0--0--0--0--0--0--0--0--0--0--0--| 


G|-------------------------------------------------|-------------------------------------------------| 
D|-------------------------------------------------|-------------------------------------------------| 
A|-5--5--5--5--5--5--5--5--5--5--5--5--5--5--5--5--|-0--0--0--0--0--0--0--0--0--0--0--0--0--0--0--0--| 
E|-------------------------------------------------|-------------------------------------------------| 

                                                                     verse 1 
G|--------|--------|--------|--------------------------------------|---------------------------------| 
D|--------|--------|--------|--------------------------------------|---------------------------------| 
A|--------|--------|--------|--------------------------------------|-2---2---2---2---2---2---2---2---| 
E|-3------|-3------|-3------|-3--3--3--3--3--3--3--3--3------------|---------------------------------| 


G|---------------------------------|-------------------------------------------| 
D|---------------------------------|-------------------------------------------| 
A|-2---2---2---2---2---2---2---2---|-------------------------------------------| 
E|---------------------------------|-2---2--2--2---2--2--2---2--2--3--3--0--0--| 


G|---------------------------------------------| 
D|---------------------------------------------| 
A|---------------------------------------2--2--| 
E|-2---2--2--2---2--2--2--2--3--3--5--5--------| 

G|-------------------------------------------------|-------------------------------------------------| 
D|-------------------------------------------------|-------------------------------------------------| 
A|-5--5--5--5--5--5--5--5--5--5--5--5--5--5--5--5--|-5--5--5--5--5--5--5--5--------------------------| 
E|-------------------------------------------------|-------------------------3--3--3--3--3--3--3--3--| 


G|-------------------------------------------------|-------------------------------------------------| 
D|-------------------------------------------------|-------------------0--0--2--2--0--0--------------| 
A|-0--0--0--0--0--0--0--0--0--0--0--0--0--0--0--0--|-0--0--2--2--4--4--------------------4--4--2--2--| 
E|-------------------------------------------------|-------------------------------------------------| 


G|-------------------------------------------------|-------------------------------------------------| 
D|-------------------------------------------------|-------------------------------------------------| 
A|-------------------------------------------------|-2--2--2--2--2--2--2--2--2--2--2--2--2--2--2--2--| 
E|-0--0--0--0--0--0--0--0--0--0--0--0--0--0--0--0--|-------------------------------------------------| 


G|-------------------------------------------------|-------------------------------------------------| 
D|-------------------------------------------------|-------------------------------------------------| 
A|-5--5--5--5--5--5--5--5--5--5--5--5--5--5--5--5--|-0--0--0--0--0--0--0--0--0--0--0--0--0--0--0--0--| 
E|-------------------------------------------------|-------------------------------------------------| 


G|-------------------------------------------------|-------------------------------------------------| 
D|-------------------------------------------------|-------------------------------------------------| 
A|-------------------------------------------------|-------------------------------------------------| 
E|-0--0--0--0--0--0--0--0--0--0--0--0--0--0--0--0--|-0--0--0--0--0--0--0--0--0--0--0--0--0--0--0--0--| 


G|-------------------------------------------------|-------------------------------------------------| 
D|-------------------------------------------------|-------------------------------------------------| 
A|-------------------------------------------------|-------------------------------------------------| 
E|-2--2--2--2--2--2--2--2--2--2--2--2--2--2--2--2--|-2--2--2--2--2--2--2--2--2--2--2--2--2--2--2--2--| 

   verse 2 
G|-------------------------------------------------|-------------------------------------------------| 
D|-------------------------------------------------|-------------------------------------------------| 
A|-2--2--2--2--2--2--2--2--2--2--2--2--2--2--2--2--|-2--2--2--2--2--2--2--2--2--2--2--2--2--2--2--2--| 
E|-------------------------------------------------|-------------------------------------------------| 


G|-------------------------------------------|---------------------------------------------| 
D|-------------------------------------------|---------------------------------------------| 
A|-------------------------------------------|---------------------------------------2--2--| 
E|-2---2--2--2---2--2--2---2--2--2--3--2--0--|-2---2--2--2---2--2--2--2--3--3--5--5--------| 


G|-------------------------------------------------|-------------------------------------------------| 
D|-------------------------------------------------|-------------------------------------------------| 
A|-5--5--5--5--5--5--5--5--5--5--5--5--5--5--5--5--|-5--5--5--5--5--5--5--5--------------------------| 
E|-------------------------------------------------|-------------------------3--3--3--3--3--3--3--3--| 


G|-------------------------------------------------|-------------------------------------------------| 
D|-------------------------------------------------|-------------------0--0--2--2--0--0--------------| 
A|-0--0--0--0--0--0--0--0--0--0--0--0--0--0--0--0--|-0--0--2--2--4--4--------------------4--4--2--2--| 
E|-------------------------------------------------|-------------------------------------------------| 


G|-------------------------------------------------|-------------------------------------------------| 
D|-------------------------------------------------|-------------------------------------------------| 
A|-------------------------------------------------|-2--2--2--2--2--2--2--2--2--2--2--2--2--2--2--2--| 
E|-0--0--0--0--0--0--0--0--0--0--0--0--0--0--0--0--|-------------------------------------------------| 


G|-------------------------------------------------|-------------------------------------------------| 
D|-------------------------------------------------|-------------------------------------------------| 
A|-5--5--5--5--5--5--5--5--5--5--5--5--5--5--5--5--|-0--0--0--0--0--0--0--0--0--0--0--0--0--0--0--0--| 
E|-------------------------------------------------|-------------------------------------------------| 


G|-------------------------------------------------|-------------------------------------------------| 
D|-------------------------------------------------|-------------------------------------------------| 
A|-------------------------------------------------|-------------------------------------------------| 
E|-0--0--0--0--0--0--0--0--0--0--0--0--0--0--0--0--|-0--0--0--0--0--0--0--0--0--0--0--0--0--0--0--0--| 


G|-------------------------------------------------|-------------------------------------------------| 
D|-------------------------------------------------|-------------------------------------2--2--4--4--| 
A|-------------------------------------------------|-------------------2--2--4--4--5--5--------------| 
E|-2--2--2--2--2--2--2--2--2--2--2--2--2--2--2--2--|-2--2--4--4--5--5--------------------------------| 

   Pre-Chorus 1 
G|---------------------------------|-------------------------------------------------| 
D|---------0---5---7---5---4---5---|-0--0--0--0--0--0--0--0--0--0--0--0--0--0--0--0--| 
A|-----2---------------------------|-------------------------------------------------| 
E|-3-------------------------------|-------------------------------------------------| 


G|-------------11-11-11-11-12-12-12-12-11-11-11-11-|-9--9--9--9--------------------11-11-9--9--11-11-| 
D|-9--9--9--9--------------------------------------|-------------12-12-12-12-12-12-------------------| 
A|-------------------------------------------------|-------------------------------------------------| 
E|-------------------------------------------------|-------------------------------------------------| 


G|---------------------------------|-------------------------------------------------| 
D|---------0---5---7---5---4---5---|-------------------------------------------------| 
A|-----2---------------------------|-5--5--5--5--5--5--5--5--5--5--5--5--5--5--5--5--| 
E|-3-------------------------------|-------------------------------------------------| 


G|-------------------------------------------------|--------------------------------------| 
D|-------------------------------------------------|--------------------------------------| 
A|-0--0--0--0--0--0--0--0--0--0--0--0--0--0--0--0--|-0--0--0--0--0--0--0--0--0------------| 
E|-------------------------------------------------|--------------------------------------| 

   Chorus 1 
G|-------------------------------------------------|-------------------------------------------------| 
D|-------------------------------------------------|-------------------------------------------------| 
A|-5--5--5--5--5--5--5--5--5--5--5--5--5--5--5--5--|-5--5--5--5--5--5--5--5--7--7--7--7--7--7--7--7--| 
E|-------------------------------------------------|-------------------------------------------------| 


G|-------------------------------------------------|-------------------------------------------------| 
D|-------------------------------------------------|-------------------------------------------------| 
A|-0--0--0--0--0--0--0--0--0--0--0--0--0--0--0--0--|-0--0--0--0--0--0--0--0--0--0--0--0--2--2--2--2--| 
E|-------------------------------------------------|-------------------------------------------------| 


G|-------------------------------------------------|-------------------------------------------------| 
D|-------------------------------------------------|-------------------------------------------------| 
A|-------------------------------------------------|-------------------------------------------------| 
E|-0--0--0--0--0--0--0--0--0--0--0--0--0--0--0--0--|-0--0--0--0--0--0--0--0--0--0--0--0--0--0--0--0--| 


G|-------------------------------------------------|-------------------------------------------------| 
D|-------------------------------------------------|-------------------------------------------------| 
A|-5--5--5--5--5--5--5--5--5--5--5--5--5--5--5--5--|-0--0--0--0--0--0--0--0--0--0--0--0--0--0--0--0--| x2 
E|-------------------------------------------------|-------------------------------------------------| 



                                                                     verse 3 
G|--------|--------|--------|--------------------------------------|---------------------------------| 
D|--------|--------|--------|--------------------------------------|---------------------------------| 
A|--------|--------|--------|--------------------------------------|-2---2---2---2---2---2---2---2---| 
E|-3------|-3------|-3------|-3--3--3--3--3--3--3--3--3------------|---------------------------------| 


G|---------------------------------|-------------------------------------------| 
D|---------------------------------|-------------------------------------------| 
A|-2---2---2---2---2---2---2---2---|-------------------------------------------| 
E|---------------------------------|-2---2--2--2---2--2--2---2--2--3--3--0--0--| 


G|---------------------------------------------| 
D|---------------------------------------------| 
A|---------------------------------------2--2--| 
E|-2---2--2--2---2--2--2--2--3--3--5--5--------| 

G|-------------------------------------------------|-------------------------------------------------| 
D|-------------------------------------------------|-------------------------------------------------| 
A|-5--5--5--5--5--5--5--5--5--5--5--5--5--5--5--5--|-5--5--5--5--5--5--5--5--------------------------| 
E|-------------------------------------------------|-------------------------3--3--3--3--3--3--3--3--| 


G|-------------------------------------------------|-------------------------------------------------| 
D|-------------------------------------------------|-------------------0--0--2--2--0--0--------------| 
A|-0--0--0--0--0--0--0--0--0--0--0--0--0--0--0--0--|-0--0--2--2--4--4--------------------4--4--2--2--| 
E|-------------------------------------------------|-------------------------------------------------| 


G|-------------------------------------------------|-------------------------------------------------| 
D|-------------------------------------------------|-------------------------------------------------| 
A|-------------------------------------------------|-2--2--2--2--2--2--2--2--2--2--2--2--2--2--2--2--| 
E|-0--0--0--0--0--0--0--0--0--0--0--0--0--0--0--0--|-------------------------------------------------| 


G|-------------------------------------------------|-------------------------------------------------| 
D|-------------------------------------------------|-------------------------------------------------| 
A|-5--5--5--5--5--5--5--5--5--5--5--5--5--5--5--5--|-0--0--0--0--0--0--0--0--0--0--0--0--0--0--0--0--| 
E|-------------------------------------------------|-------------------------------------------------| 


G|-------------------------------------------------|-------------------------------------------------| 
D|-------------------------------------------------|-------------------------------------------------| 
A|-------------------------------------------------|-------------------------------------------------| 
E|-0--0--0--0--0--0--0--0--0--0--0--0--0--0--0--0--|-0--0--0--0--0--0--0--0--0--0--0--0--0--0--0--0--| 


G|-------------------------------------------------|-------------------------------------------------| 
D|-------------------------------------------------|-------------------------------------2--2--4--4--| 
A|-------------------------------------------------|-------------------2--2--4--4--5--5--------------| 
E|-2--2--2--2--2--2--2--2--2--2--2--2--2--2--2--2--|-2--2--4--4--5--5--------------------------------| 

   Pre-Chorus 2 
G|---------------------------------|-------------------------------------------------| 
D|---------0---5---7---5---4---5---|-0--0--0--0--0--0--0--0--0--0--0--0--0--0--0--0--| 
A|-----2---------------------------|-------------------------------------------------| 
E|-3-------------------------------|-------------------------------------------------| 


G|-------------11-11-11-11-12-12-12-12-11-11-11-11-|-9--9--9--9--------------------------------------| 
D|-9--9--9--9--------------------------------------|-------------12-12-12-12-12-12-11-11-9--9--7--7--| 
A|-------------------------------------------------|-------------------------------------------------| 
E|-------------------------------------------------|-------------------------------------------------| 


G|---------------------------------|-------------------------------------------------| 
D|---------0---5---7---5---4---5---|-------------------------------------------------| 
A|-----2---------------------------|-5--5--5--5--5--5--5--5--5--5--5--5--5--5--5--5--| 
E|-3-------------------------------|-------------------------------------------------| 


G|-------------------------------------------------|--------------------------------------| 
D|-------------------------------------------------|--------------------------------------| 
A|-0--0--0--0--0--0--0--0--0--0--0--0--0--0--0--0--|-0--0--0--0--0--0--0--0--0------------| 
E|-------------------------------------------------|--------------------------------------| 

   Chorus 2 
G|-------------------------------------------------|-------------------------------------------------| 
D|-------------------------------------------------|-------------------------------------------------| 
A|-5--5--5--5--5--5--5--5--5--5--5--5--5--5--5--5--|-5--5--5--5--5--5--5--5--7--7--7--7--7--7--7--7--| 
E|-------------------------------------------------|-------------------------------------------------| 


G|-------------------------------------------------|-------------------------------------------------| 
D|-------------------------------------------------|-------------------------------------------------| 
A|-0--0--0--0--0--0--0--0--0--0--0--0--0--0--0--0--|-0--0--0--0--0--0--0--0--0--0--0--0--2--2--2--2--| 
E|-------------------------------------------------|-------------------------------------------------| 


G|-------------------------------------------------|-------------------------------------------------| 
D|-------------------------------------------------|-------------------------------------------------| 
A|-------------------------------------------------|-------------------------------------------------| 
E|-0--0--0--0--0--0--0--0--0--0--0--0--0--0--0--0--|-0--0--0--0--0--0--0--0--0--0--0--0--0--0--0--0--| 


G|-------------------------------------------------|-------------------------------------------------| 
D|-------------------------------------------------|-------------------------------------------------| 
A|-5--5--5--5--5--5--5--5--5--5--5--5--5--5--5--5--|-0--0--0--0--0--0--0--0--0--0--0--0--0--0--0--0--| x2 
E|-------------------------------------------------|-------------------------------------------------| 




  Bridge                            Harpsichord 
G|--------|--------|--------|--------|--------|--------|--------|--------|--------| 
D|--------|--------|--------|--------|--------|--------|--------|--------|--------| 
A|-5------|-5------|-5------|-5------|--------|--------|--------|--------|--------| 
E|--------|--------|--------|--------|--------|--------|--------|--------|--------| 

                                       Choir Section 
G|--------|--------|-----------------|-------------------------------------------------| 
D|--------|--------|-----------------|-------------------------------------------------| 
A|--------|--------|------------12\--|-5--5--5--5--5--5--5--5--0--0--0--0--0--0--0--0--| 
E|--------|--------|-----------------|-------------------------------------------------| 


G|-------------------------------------------------|-------------------------------------------------| 
D|-------------------------------------------------|-------------------------------------------------| 
A|-5--5--5--5--5--5--5--5--0--0--0--0--0--0--0--0--|-5--5--5--5--5--5--5--5--0--0--0--0--0--0--0--0--| 
E|-------------------------------------------------|-------------------------------------------------| 


G|-------------------------------------------------|-------------------------------------------------| 
D|-------------------------------------------------|-------------------------------------------------| 
A|-------------------------------------------------|-------------------------2--2--2--2--2--2--2--2--| 
E|-3--3--3--3--3--3--3--3--3--3--3--3--3--3--2--2--|-0--0--0--0--0--0--0--0--------------------------| 


G|-------------------------------------------------|-------------------------------------------------| 
D|-------------------------------------------------|-------------------------------------------------| 
A|-------------------------2--2--2--2--2--2--2--2--|-------------------------------------------------| 
E|-0--0--0--0--0--0--0--0--------------------------|-3--3--3--3--3--3--3--3--3--3--3--3--3--3--3--3--| 


G|-------------------------------------------------|-----------------------------------------| 
D|-------------------------------2--2--------------|-----------------------------------------| 
A|-0--0--0--0--2--2--4--4--5--5--------5--5--4--4--|-2--2--2--2--2--2--2-------2---2--2--2---| 
E|-------------------------------------------------|-----------------------------------------| 


G|-----------------------------------------|-----------------------------------------| 
D|-----------------------------------------|-----------------------------------------| 
A|-2--2--2--2--2--2--2-------2---2--2--2---|-5--5--5--5--5--5--5-------5---5--5--5---| 
E|-----------------------------------------|-----------------------------------------| 

                                                      
G|-------------------------------------------------| 
D|-------------------------------------------------| 
A|-5--5--5--5--5--5--5--5--5--5--5--5--5--5--5--5--| 
E|-------------------------------------------------| 


   Guitar Harmony 
G|-------------------------------------------------|-------------------------------------------------| 
D|-------------------------------------------------|-------------------------------------------------| 
A|-------------------------------------------------|-------------------------------------------------| 
E|-0--0--0--0--0--0--0--0--0--0--0--0--0--0--0--0--|-0--0--0--0--0--0--0--0--0--0--0--0--0--0--0--0--| 


G|-------------------------------------------------|-------------------------------------------------| 
D|-------------------------------------------------|-------------------------------------------------| 
A|-3--3--3--3--3--3--3--3--3--3--3--3--3--3--3--3--|-------------------------5--5--5--5--5--5--5--5--| 
E|-------------------------------------------------|-3--3--3--3--3--3--3--3--------------------------| 


G|-------------------------------------------------|-------------------------------------------------| 
D|-------------------------------------------------|-------------------------------------------------| 
A|-------------------------------------------------|-3--3--3--3--3--3--3--3--3--3--3--3--3--3--3--3--| 
E|-0--0--0--0--0--0--0--0--0--0--0--0--0--0--0--0--|-------------------------------------------------| 


G|-------------------------------------------------|-------------------------------------------------| 
D|-------------------------------------------------|-------------------------------------------------| 
A|-3--3--3--3--3--3--3--3--3--3--3--3--3--3--3--3--|-5--5--5--5--5--5--5--5--5--5--5--5--5--5--5--5--| x2 
E|-------------------------------------------------|-------------------------------------------------| 


   Guitar Solo 
G|-------------------------------------------------| 
D|-------------------------------------------------| 
A|-------------------------------------------------| 
E|-3--3--3--3--3--3--3--3--3--3--3--3--3--3--3--3--| 


G|-------------------------------------------------|-------------------------------------------------| 
D|-------------------------------------------------|-------------------------------------------------| 
A|-0--0--0--0--0--0--0--0--0--0--0--0--0--0--0--0--|-2--2--2--2--2--2--2--2--2--2--2--2--2--2--2--2--| 
E|-------------------------------------------------|-------------------------------------------------| 


G|-------------------------------------------------|-------------------------------------------------| 
D|-------------------------------------------------|-------------------------------------------------| 
A|-2--2--2--2--2--2--2--2--2--2--2--2--2--2--2--2--|-------------------------------------------------| 
E|-------------------------------------------------|-3--3--3--3--3--3--3--3--3--3--3--3--3--3--3--3--| 


G|-------------------------------------------------|-------------------------------------------------| 
D|-------------------------------------------------|-------------------------------------------------| 
A|-0--0--0--0--0--0--0--0--0--0--0--0--0--0--0--0--|-2--2--2--2--2--2--2--2--2--2--2--2--2--2--2--2--| 
E|-------------------------------------------------|-------------------------------------------------| 


G|-------------------------------------------------|-------------------------------------------------| 
D|-------------------------------------------------|-------------------------------------------------| 
A|-2--2--2--2--2--2--2--2--2--2--2--2--2--2--2--2--|-------------------------------------------------| 
E|-------------------------------------------------|-3--3--3--3--3--3--3--3--3--3--3--3--3--3--3--3--| 


G|-------------------------------------------------|-------------11-11-11-11-12-12-12-12-11-11-11-11-| 
D|-------------------------------------------------|-9--9--9--9--------------------------------------| 
A|-0--0--0--0--0--0--0--0--0--0--0--0--0--0--0--0--|-------------------------------------------------| 
E|-------------------------------------------------|-------------------------------------------------| 


G|-9--9--9--9--------------------------------------|-------------------------------------------------| 
D|-------------12-12-12-12-12-12-11-11-9--9--11-11-|-------------------------------------------------| 
A|-------------------------------------------------|-------------------------------------------------| 
E|-------------------------------------------------|-3--3--3--3--3--3--3--3--3--3--3--3--3--3--3--3--| 


G|-------------------------------------------------|-------------------------------------------------| 
D|-------------------------------------------------|-------------------------------------------------| 
A|-------------------------------------------------|-0--0--0--0--0--0--0--0--0--0--0--0--0--0--0--0--| 
E|-3--3--3--3--3--3--3--3--3--3--3--3--3--3--3--3--|-------------------------------------------------| 

                                       
G|--------------------------------------| 
D|--------------------------------------| 
A|-0--0--0--0--0--0--0--0--0------------| 
E|--------------------------------------| 


  Chorus 3 
G|-------------------------------------------------|-------------------------------------------------| 
D|-------------------------------------------------|-------------------------------------------------| 
A|-5--5--5--5--5--5--5--5--5--5--5--5--5--5--5--5--|-5--5--5--5--5--5--5--5--7--7--7--7--7--7--7--7--| 
E|-------------------------------------------------|-------------------------------------------------| 


G|-------------------------------------------------|-------------------------------------------------| 
D|-------------------------------------------------|-------------------------------------------------| 
A|-0--0--0--0--0--0--0--0--0--0--0--0--0--0--0--0--|-0--0--0--0--0--0--0--0--0--0--0--0--2--2--2--2--| 
E|-------------------------------------------------|-------------------------------------------------| 


G|-------------------------------------------------|-------------------------------------------------| 
D|-------------------------------------------------|-------------------------------------------------| 
A|-------------------------------------------------|-------------------------------------------------| 
E|-0--0--0--0--0--0--0--0--0--0--0--0--0--0--0--0--|-0--0--0--0--0--0--0--0--0--0--0--0--0--0--0--0--| 

                                                     1st ending 
G|-------------------------------------------------|-------------------------------------------------| 
D|-------------------------------------------------|-------------------------------------------------| 
A|-5--5--5--5--5--5--5--5--5--5--5--5--5--5--5--5--|-0--0--0--0--0--0--0--0--0--0--0--0--0--0--0--0--| x2 
E|-------------------------------------------------|-------------------------------------------------| 


   2nd ending     
G|--------------------------------------| 
D|--------------------------------------| 
A|-0--0--0--0--0--0--0--0--0------------| 
E|--------------------------------------| 



   Chorus 4 
G|-------------------------------------------------|-------------------------------------------------| 
D|-------------------------------------------------|-------------------------------------------------| 
A|-------------------------------------------------|-------------------------------------------------| 
E|-1--1--1--1--1--1--1--1--1--1--1--1--1--1--1--1--|-1--1--1--1--1--1--1--1--3--3--3--3--3--3--3--3--| 


G|-------------------------------------------------|-------------------------------------------------| 
D|-------------------------------------------------|-------------------------------------------------| 
A|-3--3--3--3--3--3--3--3--3--3--3--3--3--3--3--3--|-3--3--3--3--3--3--3--3--3--3--3--3--5--5--5--5--| 
E|-------------------------------------------------|-------------------------------------------------| 


G|-------------------------------------------------|-------------------------------------------------| 
D|-------------------------------------------------|-------------------------------------------------| 
A|-------------------------------------------------|-------------------------------------------------| 
E|-3--3--3--3--3--3--3--3--3--3--3--3--3--3--3--3--|-3--3--3--3--3--3--3--3--3--3--3--3--3--3--3--3--| 


G|-------------------------------------------------|-------------------------------------------------| 
D|-------------------------------------------------|-------------------------------------------------| 
A|-------------------------------------------------|-3--3--3--3--3--3--3--3--3--3--3--3--3--3--3--3--| x2 
E|-1--1--1--1--1--1--1--1--1--1--1--1--1--1--1--1--|-------------------------------------------------| 


   Outro 
G|-------------------------------------------------|-------------------------------------------------| 
D|-------------------------------------------------|-------------------------------------------------| 
A|-1--1--1--1--1--1--1--1--1--1--1--1--1--1--1--1--|-1--1--1--1--1--1--1--1--1--1--1--1--1--1--1--1--| 
E|-------------------------------------------------|-------------------------------------------------| 


G|-------------------------------------------------|-------------| 
D|-------------------------------------------------|-------------| 
A|-1--1--1--1--1--1--1--1--1--1--1--1--1--1--1--1--|-1-----------| 
E|-------------------------------------------------|--------13\--| 


G|-------------------------------------------------|-------------------------------------------------| 
D|-------------------------------------------------|-------------------------------------------------| 
A|-------------------------------------------------|-------------------------------------------------| 
E|-1--1--1--1--1--1--1--1--1--1--1--1--1--1--1--1--|-1--1--1--1--1--1--1--1--1/-3/-5/-6/-8/-10/12/13-| 


G|-------------------------------------------------|-------------------------------------------------| 
D|-------------------------------------------------|-------------------------------------------------| 
A|-------------------------------------------------|-------------------------------------------------| 
E|-13-13-13-13-13-13-13-13-13-13-13-13-13-13-13-13-|-13-13-13-13-13-13-13-13-13-13-13-13-13-13-13-13-| 


G|--------|--------------------|----------------| 
D|--------|--------------------|----------------| 
A|--------|--------------------|----------------| 
E|-13-----|-------13-----------|-1------1-------| 


***************** 

| \   Slide down 
| /   Slide up 

****************** 
	  

Search Paypal
auto scroll beats size up size down change color hide chords drawings
tab show chords e-chords YouTube Clip e-chords hide all tabs e-chords go to top tab