Scorpions

home > Scorpions

Slave Me Bass Tab

Scorpions

Difficulty: ExpertExpert

by educastilho

tuner correct add songbook print version text version save to e-mail
chordsukulelecavacokeyboardtabbassdrumsharmonicsflute Guitar Pro
chords

Slave Me

  		(intro) 

E---------------------13-----13-----13------- 
B---------------------16b18—-16b18—-16b18---- 
G--7----7--7--5--7--------------------------- 
D--7----7--7--5--7--------------------------- 
A--5----5--5--3--5--------------------------- 
E--5----5--5--3--5--------------------------- 

G|--7----7--7--5--7--------------------------- 
D|--7----7--7--5--7---------------------------   Tocar esta riff nas estrofes 
A|--5----5--5--3--5--------------------------- 
E|--5----5--5--3--5--------------------------- 

G|--7----7--7--5--7--------------------------- 
D|--7----7--7--5--7---------------------------   tocar esta riff antes das estrofes antes do Refrão 
A|--5----5--5--3--5---5--3-------------------- 
E|--5----5--5--3--5---3--1-------------------- 

(Refrão) 
G|---------------------7-7--5--7--5-7---------- 
D|--5-5--3-------------7-7--5--7--5-7---------- 
A|--5-5--3--5-6-6-6-5--5-5--3--5--3-5---------- 
E|--3-3--1--3-3-3-3-3--5-5--3--5--3-5---------- 

(outro) 
E|----------------------------- 
B|---------------------—-—----- 
G|--7----7-----7--7--5--7------ 
D|--7----7-----7--7--5--7------ (tocada após o segundo Refrão) 
A|--5----5-----5--5--3--5------ 
E|--5----5-----5--5--3--5------ 

(solo) a basa é a do Refrão 
(Refrão) 
	  

Search Paypal
auto scroll beats size up size down change color hide chords drawings
tab show chords e-chords YouTube Clip e-chords hide all tabs e-chords go to top tab