Van Halen

home > Van Halen

Jump Tab

Van Halen

Difficulty: ExpertExpert

by Baquit

tuner correct add songbook print version text version save to e-mail
chordsukulelecavacokeyboardtabbassdrummharmonicsflute Guitar Pro
chords

Jump

Key:  C More
Jump Key GG
Jump Key G#G#
Jump Key AA
Jump Key A#A#(one step down)
Jump Key BB(half step down)
Jump Key CC(original key)
Jump Key C#C#(half step up)
Jump Key DD(one step up)
Jump Key D#D#
Jump Key EE
Jump Key FF
Jump Key F#F#
	  intro. 


 e ------------------------------------------------------------- 
 B ------------------------------------------------------------- 
 G ------------------------------------------------------------- 
 D ------5-------------------------------------------------5---- 
 A 3-3---3-3-3-3-3-3-3-3-3-3-3-3-3-3-3-3-3-3-3-3-3-3-3-3-3-3-3-5 
 E ----3-----------------------------------------------------1-3 


 verso 


 e ------------------------------------------------------------- 
 B ------------------------------------------------------------- 
 G ------------------------------------------------------------- 
 D -------2----------------2-------------------2---------------- 
 A -5-5-5---x-xx-3--3--5-5---3-----------3-3-3---x-xx-3--3--5-5- 
 E -----------------------------5--3-0-3------------------------ 



 e ------------------------------------------------------------- 
 B ------------------------------------------------------------- 
 G ------------------------------------------------------------- 
 D --2---------------------------------------------------------- 
 A ----3-------------------------------------------------------- 
 E ------5--3-0-3----------------------------------------------- 



 interludio 


 e ------------------------------------------------------------- 
 B ------------------------------------------------------------- 
 G -7/9------5-------5--7/9--7-----------5-------5--7/9--7------ 
 D -------7-------5-------------------7-------5----------------- 
 A -----8-----8-7---------------5-7-8-----8-7------------------- 
 E ------------------------------------------------------------- 




 e ------------------------------------------------------------- 
 B --------------------8/10--8---------------------------------- 
 G ----------5-------5------------------------------------------ 
 D --------7-------5-------------------------------------------- 
 A --5-7-8-----8-7---------------------------------------------- 
 E ------------------------------------------------------------- 



 solo 


 e --18--6--------6------------6-------------------------------- 
 B ---------9b11---9-6--9p6-------------------6----6b7(HA)--6(HA) 
 G -------------------------9-----9p8--6--8----6---------------- 
 D ------------------------------------------------------------- 
 A ------------------------------------------------------------- 
 E ------------------------------------------------------------- 


 e ------------------------------------------------------------- 
 B --6b7(HA)--6(HA)--------------------------------------------- 
 G ---------------------8b9(HA)r-8p6---------------------------- 
 D -----------------8----------------8P6---6-------------------- 
 A -------------------8------------------8---8p7p6\4--6--4------ 
 E ------------------------------------------------------------- 



 e --13t-6h9p8p6---13t-6h9p8p6---13t-6h9p8p6-------------------- 
 B -----------------------------------------13t-9p8p6----------- 
 G --------------------------------------------------13t-9p8p6-- 
 D ------------------------------------------------------------- 
 A ------------------------------------------------------------- 
 E ------------------------------------------------------------- 



 e -------------------------------------6--8--11--11/13\11p9--11/ 
 B -----------------------------------6-------------------------- 
 G ------------------8b10r8p6--8----6---------------------------- 
 D --13t-6h9p8p6-------------------8----------------------------- 
 A --------------8b9--------------------------------------------- 
 E -------------------------------------------------------------- 



 e ------------------------------------------------------------- 
 B ------------------------------------------------------------- 
 G -------------------------------------------------15h16h18---- 
 D --------------15h16h18---------------15h16h18---------------- 
 A --15h16h18---------------15h16h18---------------------------- 
 E ------------------------------------------------------------- 



 e ------------15h16p15----------------------------------------- 
 B --15h16h18--------------------------------------------------- 
 G ------------------------------------------------------------- 
 D ------------------------------------------------------------- 
 A ------------------------------------------------------------- 
 E ------------------------------------------------------------- 


  base do solo de teclado 

  

 e ------------------------------------------------------------- 
 B ------------------------------------------------------------- 
 G ------------------------------------------------------------- 
 D ------5-------------------------5---------------------------- 
 A --xx--3--3--5--8-------7--6--5--3---------------------------- 
 E ---------1--3--6--8p6--5--4--3------------------------------- 



 riff final 



 e ------------------------------------------------------------- 
 B ------------------------------------------------------------- 
 G -5-5-4-4-5-------------4-4-5-------5-5-5-5-5------------5---- 
 D -----------7-7-7-7-7-7-------5-5-5--------------------------- 
 A ---------------------------------------------3--5--3-3------- 
 E ---------------------------------------------1--3------------ 



 e ------------------------------------------------------------- 
 B ------------------------------------------------------------- 
 G ------5-----5-----5------------------------------------------ 
 D ------------------------5--5--------------------------------- 
 A --3-3---3-3---3-3---3-3------3------------------------------- 
 E --------------------------------5--3h0-3--------------------- 




	  

Play

there is a video lesson for this song

view more
Search
auto scroll beats size up size down change color hide chords drawings
tab show chords e-chords YouTube Clip e-chords hide all tabs e-chords go to top tab