Lana Del Rey

Jump

Lana Del Rey

tabs

by  GUSTSILVA

save to print version add songbook text version e-mail correct tuner
chordsukulelecavacokeyboardtabbassdrumsharmonicaflute Guitar Pro
close

there isn't a video lesson for this song

chords

Jump

	  		JUMP - LANA DEL REY 

verses: last time, fuck them. last words before you went under again 

e|---4-4-4-4--4-4-----3-3-3-3--3-3-----0-0-0-0--0-0-----0-0-0-0--0-0-----rpt-| 
B|---5-5-5-5--5-5-0---5-5-5-5--5-5-0---5-5-5-5--5-5-0---5-5-5-5--5-5-0-------| 
G|---4-4-4-4--4-4-0---4-4-4-4--4-4-0---6-6-6-6--6-6-0---5-5-5-5--5-5-0-------| 
D|----------------0----------------0---7-7-7-7--7-7-0---5-5-5-5--5-5-0-------| 
A|-E----------------Em----------------A----------------C---------------------| 
E|---------------------------------------------------------------------------| 

Chorus: do ya wanna ? ...jump ...jump ...jump 

e|--0-0-0---0-0-0---0-0-0---0-0-0---0-0-0---0-0-0---0-0-0---0-0-0--------rpt-| 
B|--5-5-5---5-5-5---5-5-5---5-5-5---5-5-5---5-5-5---5-5-5---5-5-5------------| 
G|-4-4-4-4/5-5-5-5\4-4-4-4/5-5-5-5\4-4-4-4/5-5-5-5\4-4-4-4/5-5-5-5-----------| 
D|---------------------------------------------------------------------------| 
A|-E------C-------E-------C-------E-------C-------E-------C------------------| 
E|---------------------------------------------------------------------------| 

outro: just do what ya love, just do whatchu can 

e|--0-0-0-0--0-0-----0-0-0-0--0-0-----0-0-0-0--0-0-----0-0-0-0--0-0------rpt-| 
B|--0-0-0-0--0-0-0---1-1-1-1--1-1-0---0-0-0-0--0-0-0---1-1-1-1--1-1-0--------| 
G|--1-1-1-1--1-1-0---2-2-2-2--2-2-0---1-1-1-1--1-1-0---2-2-2-2--2-2-0--------| 
D|--2----------------0----------------2----------------0---------------------| 
A|-E---------------Am----------------E---------------Am----------------------| 
E|---------------------------------------------------------------------------| 


Palm trees in black and white 
Last thing I saw before I died 
Palm trees in black and white 
Was the last thing I saw before I died 
Right line, right man 
Right mixture of cocaine and heroin 

Do you wanna jump, jump, jump 
Do you wanna jump, jump, jump 
Do you wanna jump, jump, jump 
Do you, do you wanna 

Hair thin and in the wind 
Cadillac convertible with him 
Hot shot at two A.M. 
You got the grin of a very old man 

Do you wanna jump, jump, jump 
Do you wanna jump, jump, jump 
Do you wanna jump, jump, jump 
Do you, do you wanna 

Palm trees in black and white 
You are a junkie on your window, smiling wide 
Palm trees in black and white 
Lean forward and you close your eyes 
Last time, fuck them 
Last words before you went under again 

Do you wanna jump, jump, jump 
Do you wanna jump, jump, jump 
Do you wanna jump, jump, jump 
Do you, do you, do you wanna 

Just do what you love, just do what you can 
Just do what you love, just do what you can 
Just do what you love, do it better than 
Just do what you love, do it better than 

Do you wanna 
Do you wanna 
Jump 
		  

auto scroll beats size up size down change color hide chords drawings
tab show chords e-chords YouTube Clip e-chords hide all tabs e-chords go to top tab

share