Glee Cast

Jump

Glee Cast

tabs

by  TEUSALVES

save to print version add songbook text version e-mail correct tuner
chordsukulelecavacokeyboardtabbassdrumsharmonicaflute Guitar Pro
close

there isn't a video lesson for this song

chords

Jump

	  		(intro 3)  

e|---------------------------------------------------------------------|  
B|-----15----17----13---13----15----15----17-----13----10-----8---8----|  
G|-----16----17----14---14----16----16----17-----14----10-----9---7----|  
D|-----17----17----15---15----17----17----17-----15----10----10--10----|  
A|---------------------------------------------------------------------|  
E|---------------------------------------------------------------------|  

e|-------20-----20----20-----20-----15---------------------------------|  
B|-------22-----22----22-----22-----17------13---10---10----8----8-----|  
G|-------22-----22----22-----22-----17------14---10---10----9----7-----|  
D|------------------------------------------15---10---10---10---10-----|  
A|---------------------------------------------------------------------|  
E|---------------------------------------------------------------------|  

(pre-Chorus)  
                slight vib. w/bar  
     ~~~~~~~~~~~~~~~~~~~~~~~~~~~~~~~~~~~~~~~~~~~~~~~~~~~~~~~~~~  
e|---------------------------------------------------------------------|  
B|---------------------------------------------------------------------|  
G|----9----------------------------------------------------------------|  
D|---------------------------------------------------------------------|  
A|---------------------------------------------------------------------|  
E|---------------------------------------------------------------------|  

                     pm -------            slight vib. w/bar  
                                          ~~~~~~~~~~~~~~~~~~~~~~~~~  
e|---------------------------------------------------------------------|  
B|---------------------------------------------------------------------|  
G|-------------5------------5--------7/9---7---------------------------|  
D|----------7------------5---------------------------------------------|  
A|------8------------7-------------------------------------------------|  
E|---------------------------------------------------------------------|  

  pm--------------         pm------------  
e|---------------------------------------------------------------------|  
B|---------------------------------------------------------------------|  
G|---------------------5----------------5------7/9----7----------------|  
D|----------------7-----------------5----------------------------------|  
A|---5--7----8----------------7----------------------------------------|  
E|---------------------------------------------------------------------|  

                                                                 slight vib.  
                                                           ~~~~~~~~~~~  
e|---------------------------------------------------------------------|  
B|--------------------------------------------------8/10---8-----------|  
G|--------------------------5------------------5-----------------------|  
D|---------------------7------------------7----------------------------|  
A|------5---7-----8------------------7---------------------------------|  
E|---------------------------------------------------------------------|  

                         (solo-1/2 step down)  
         ~~~~~~~~~         1  ~~~              p               p p  
e|-------19/----------7------)----------7-----------------7------------|  
B|----x---------x----------10-------------7---10--7--------------------|  
G|--x------------------------------------------------10-------10-9-7-9-|  
D|---------------------------------------------------------------------|  
A|---------------------------------------------------------------------|  
E|---------------------------------------------------------------------|  

                        A.H.--------             A.H.  
                1/2         1   1~~~                    p  
e|----------------)----------)---)-----------------1-------------------|  
B|----7----------7------7---7---7-------------------)------------------|  
G|-------7-----------------------------------------9R------------------|  
D|-----------------------------------------9------------9--7-----7-----|  
A|--------------------------------------------9---------------9--------|  
E|---------------------------------------------------------------------|  

       p  p         ~~~~~~                  T  
e|-------------------------------7--10-----14--10--9--7--10------------|  
B|---------------------------------------------------------------------|  
G|---------------------------------------------------------------------|  
D|---------------------------------------------------------------------|  
A|-----9-8-7--5--7--5--------------------------------------------------|  
E|---------------------------------------------------------------------|  

     T                         T  
e|---14--10---9---7---10-------14----10----9---7---10------------------|  
B|---------------------------------------------------------------------|  
G|---------------------------------------------------------------------|  
D|---------------------------------------------------------------------|  
A|---------------------------------------------------------------------|  
E|---------------------------------------------------------------------|  

             T            T                T             T  
e|---------------------------------------------------------------------|  
B|------10---14---7----------------------------------------------------|  
G|--------------------10--14---7--11-----------------------------------|  
D|-----------------------------------------14---7--11------------------|  
A|-------------------------------------------------------14---7---11---|  
E|---------------------------------------------------------------------|  

                               PM----------  
e|-----------------1-----------------------7---9---12--14---10---12----|  
B|-----------------)--------------------7------------------------------|  
G|------1---------9----7---9---------7---------------------------------|  
D|------)-------------------------9------------------------------------|  
A|-----7-R---9---------------------------------------------------------|  
E|---------------------------------------------------------------------|  

e|---------------------------------------------------------------------|  
B|--------------------------------------------------------16-17-19-----|  
G|----------------------------------------------16-17-19---------------|  
D|----------------16-17-19------------16-17-19-------------------------|  
A|-----16-17-19-------------16-17-19-----------------------------------|  
E|---------------------------------------------------------------------|  

E|10-7--10-7--12-6--12-8--10-7-|--10-7---8-5--6-5-8-5-10-7--10-7-12-6-10-7|  
B|----8-----8-----8-----8------|-8-----8----6----6---6----8-----6----8----|  
G|-----------------------------|------------------------------------------|  
D|-----------------------------|------------------------------------------|  
A|-----------------------------|------------------------------------------|  
E|-----------------------------|------------------------------------------|  

E|--10-7--10-7--8-5-8-5--8-5--|-7-3-7-3-8-5--10-7-8-5-|--10-7-8-5-7--7-3-|  
B|-8----8-----8----6---6----6-|----3---3---6-----6----|6-----6---6--3---3|  
G|----------------------------|-----------------------|------------------|  
D|----------------------------|-----------------------|------------------|  
A|----------------------------|-----------------------|------------------|  
E|----------------------------|-----------------------|------------------|  

E|--5-1--5-1-7-3-5-1-7-3|-8-5--10-7-8-5---10-7--8-5--|  
B|-----1----1---3---1---|3---6-----8----6-----8----6-|  
G|----------------------|----------------------------|  
D|----------------------|----------------------------|  
A|----------------------|----------------------------|  
E|----------------------|----------------------------|  

E|------------------------------------|-------------------------------------|  
B|8-13-15-20-8-13-15-20-15-13-15-20-15|-8-13-15-20-15-8-13-15-20-15-8-13-15-|  
G|------------------------------------|-------------------------------------|  
D|------------------------------------|-------------------------------------|  
A|------------------------------------|-------------------------------------|  
E|------------------------------------|-------------------------------------|  

E|--13-8-13-15-20-15-8-13-15-20-15-8-13-15-20-15-8-13-15|-20-15-8-13-15-20-|  
B|------------------------------------------------------|------------------|  
G|------------------------------------------------------|------------------|  
D|------------------------------------------------------|------------------|  
A|------------------------------------------------------|------------------|  
E|------------------------------------------------------|------------------|  

E|15-8-13-15-20-15-13-8-15-20-15-8-15-13|-8-13-15-20-15-8-13-15-20-15-8-13--|  
B|--------------------------------------|-----------------------------------|  
G|--------------------------------------|-----------------------------------|  
D|--------------------------------------|-----------------------------------|  
A|--------------------------------------|-----------------------------------|  
E|--------------------------------------|-----------------------------------|  

E|-15-20-15-13-8-13-15-20-15-13-8-13-15-20-15-13|--------|---------|-------|  
B|----------------------------------------------|--------|8--------|-------|  
G|----------------------------------------------|5-7-9-7-|-5-9-5-7-|7---9-5|  
D|----------------------------------------------|--------|---------|-------|  
A|----------------------------------------------|--------|---------|-------|  
E|----------------------------------------------|--------|---------|-------|  

E|----------|---------------|-------------------|-------------|  
B|----------|---------------|-------------------|-------------|  
G|----------|---------------|-------------------|-------------|  
D|----------|---------------|-------------------|-------------|  
A|-3-3-3-3--|-3-3-3-3-3-3-3-|-3-3-3-3---3-3-3-3-|-3-----------|  
E|----------|---------------|-------------------|--1-1-3-3-3-3|  

E|----------------|-----3--3--------|----------------|-----------------------|  
B|----------------|-----5--3--------|---5-5-5-4-4-5-2|-2-2-5-5-4-4-5-----5-5-|  
G|-5-5-5-5-5-5-5-5|-5---5--5--------|----------------|--------------5-5-5----|  
D|----------------|------------5-5-5|----------------|-----------------------|  
A|----------------|-----------------|-3--------------|-----------------------|  
E|----------------|-----------------|----------------|-----------------------|  

E|----------|---3---3--3---3--3|---------------|-----------------|---3-3|  
B|----------|---5---3--3---3--5|---------------|-----------------|---5-3|  
G|-5-5-5-5-5|-5-5---5--5---5--5|--5-5-5-5-5-5-5|-5-5-5-5-5-5-5-5-|-5-5-5|  
D|----------|------------------|---------------|-----------------|------|  
A|----------|------------------|---------------|-----------------|------|  
E|----------|------------------|---------------|-----------------|------|  

E|--------------|----------------|------------|--3-3-3-3-3|--------------|  
B|--------------|----------------|------------|--5-3-3-3-3|--------------|  
G|5-5-5-4-4-5--2|2-2-5-5-4-4-5---|---5-5-5-5-5|5-6-5-5-5-5|5-5-5-5-5-5-5-|  
D|--------------|--------------5-|5-5---------|-----------|--------------|  
A|--------------|----------------|------------|-----------|--------------|  
E|--------------|----------------|------------|-----------|--------------|  

E|-----------------|  
B|-----------------|  
G|-5-5-5-5-5-5-5-5-|  
D|-----------------|  
A|-----------------|  
E|-----------------| 
		  

auto scroll beats size up size down change color hide chords drawings
tab show chords e-chords YouTube Clip e-chords hide all tabs e-chords go to top tab

share