Simple Plan

Jump

Simple Plan

tabs Beginner beginner

by  PLAYGUI

save to print version add songbook text version e-mail correct tuner
chordsukulelecavacokeyboardtabbassdrumsharmonicaflute Guitar Pro
close

there isn't a video lesson for this song

chords

Jump

	  		introduçao sem distorção  
 
E---------------------------------------------------| 
A---------------------------------------------------| 
D---5---5--5--5-5--5---5--5-5---5-5--5-5------------|(JUMP) 
G-----4---4--4----4--4---4----4-----4----4-4--------| 
B---------------------------------------------------| 
E---------------------------------------------------| 
 
Introduçao 2 com distorçao 
 
E--0-0---------0--0-0-----------0-0---------0-0-------| 
A--2-2----7----2--2-2-----7-----2-2----7----2-2--7--7-| 
D--2-2----9----2--2-2-----9-----2-2----9----2-2--9--7-| 
G---------9---------------9------------9---------9--7-| x2 
B-----------------------------------------------------| 
E-----------------------------------------------------| 
 
depois: 
 
E------------------------------------0-0-------0-0------| 
A-7-7--x-x--7-7--x-x--7-7--x-x--7----2-2---7---2-2--7-7-| 
D-9-9--x-x--9-9--x-x--9-9--x-x--9----2-2---9---2-2--9-7-| 
G-9-9--x-x--9-9--x-x--9-9--x-x--9----------9--------9-7-| 
B-------------------------------------------------------| 
E-------------------------------------------------------| 
 
depois: 
 
E--0-0---------0--0-0-----------0-0---------0-0--------| 
A--2-2----7----2--2-2-----7-----2-2----7----2-2--7--7~-| 
D--2-2----9----2--2-2-----9-----2-2----9----2-2--9--7~-| 
G---------9---------------9------------9---------9--7~-| 
B------------------------------------------------------| 
E------------------------------------------------------| 
 
tocar ate  o Pre Chorus 
 
E--------------------------------------------------| 
A--------------------------------------------------| 
D---5---5--5--5-5--5---5--5-5---5-5--5-5-----------| 
G-----4---4--4----4--4---4----4-----4----4-4-------| 
B--------------------------------------------------| 
E--------------------------------------------------| 
 
Pre- Chorus: 
 
-->>> "sick of this house, sick of my job..." play til Chorus 
 
E------------------------------------------------------| 
A--x-x--7---x-x--7---x-x--7---x-x--7---x-x--7---x-x--7-| 
D--x-x--9---x-x--9---x-x--9---x-x--9---x-x--9---x-x--9-| 
G--x-x--9---x-x--9---x-x--9---x-x--9---x-x--9---x-x--9-| 
B------------------------------------------------------| 
E------------------------------------------------------| 
 
REFRAO: 
 
"Jump,  Dont   wanna     think     about    tomarrow 
 
E--0-0---------0--0-0-----------0-0---------0-0--------| 
A--2-2----7----2--2-2-----7-----2-2----7----2-2--7--7~-| 
D--2-2----9----2--2-2-----9-----2-2----9----2-2--9--7~-| 
G---------9---------------9------------9---------9--7~-| 
B------------------------------------------------------| 
E------------------------------------------------------| 
 
"Jump, I just dont care tonight, I  just  wanna  jump 
 
E--0-0---------0--0-0-----------0-0---------0-0--------| 
A--2-2----7----2--2-2-----7-----2-2----7----2-2--7--7~-| 
D--2-2----9----2--2-2-----9-----2-2----9----2-2--9--7~-| 
G---------9---------------9------------9---------9--7~-| 
B------------------------------------------------------| 
E------------------------------------------------------| 
 
"Jump,  Dont   wanna    think   about  my    sorrow 
 
E--0-0---------0--0-0-----------0-0---------0-0--------| 
A--2-2----7----2--2-2-----7-----2-2----7----2-2--7--7~-| 
D--2-2----9----2--2-2-----9-----2-2----9----2-2--9--7~-| 
G---------9---------------9------------9---------9--7~-| 
B------------------------------------------------------| 
E------------------------------------------------------| 
 
"Lets go..., Whoo Ooh, Forget tomarow i just wanna jump 
 
E--0-0---------0--0-0-----------0-0---------0-0--------| 
A--2-2----7----2--2-2-----7-----2-2----7----2-2--7--7~-| 
D--2-2----9----2--2-2-----9-----2-2----9----2-2--9--7~-| 
G---------9---------------9------------9---------9--7~-| 
B------------------------------------------------------| 
E------------------------------------------------------| 
 
esta é a parte tocada depois do primeiro refrao 
 
E---0-0----0-0----0-0----------| 
A---2-2----2-2----2-2----------| 
D---2-2----2-2----2-2----------| 
G------------------------------| 
B------------------------------| 
E------------------------------| 
 
2 verso 
 
E--------------------------------------------------| 
A--------------------------------------------------| 
D---5---5--5--5-5--5---5--5-5---5-5--5-5-----------| 
G-----4---4--4----4--4---4----4-----4----4-4-------| 
B--------------------------------------------------| 
E--------------------------------------------------| 
 
esta é a guitarra que vem durante o verso 2 
 
E--------------------------------------------------| 
A--------------------------------------------------| 
D--------------------------------------------------| 
G-4-4-4-4-4-4-4-4-4-4-4-4-6-6-6-6-6-6-6-6-6-6-6-6--| 
B-6-6-6-6-6-6-6-6-6-6-6-6-8-8-8-8-8-8-8-8-8-8-8-8--| 
E-6-6-6-6-6-6-6-6-6-6-6-6-8-8-8-8-8-8-8-8-8-8-8-8--| 
 
Pre - Chorus 
 
Refrao 
 
"Jump,  Dont   wanna     think     about    tomarrow 
 
E--0-0---------0--0-0-----------0-0---------0-0--------| 
A--2-2----7----2--2-2-----7-----2-2----7----2-2--7--7~-| 
D--2-2----9----2--2-2-----9-----2-2----9----2-2--9--7~-| 
G---------9---------------9------------9---------9--7~-| 
B------------------------------------------------------| 
E------------------------------------------------------| 
 
"Jump, I just dont care tonight, I  just  wanna  jump 
 
E--0-0---------0--0-0-----------0-0---------0-0--------| 
A--2-2----7----2--2-2-----7-----2-2----7----2-2--7--7~-| 
D--2-2----9----2--2-2-----9-----2-2----9----2-2--9--7~-| 
G---------9---------------9------------9---------9--7~-| 
B------------------------------------------------------| 
E------------------------------------------------------| 
 
"Jump,  Dont   wanna    think   about  my    sorrow 
 
E--0-0---------0--0-0-----------0-0---------0-0--------| 
A--2-2----7----2--2-2-----7-----2-2----7----2-2--7--7~-| 
D--2-2----9----2--2-2-----9-----2-2----9----2-2--9--7~-| 
G---------9---------------9------------9---------9--7~-| 
B------------------------------------------------------| 
E------------------------------------------------------| 
 
"Lets go..., Whoo Ooh,Forget your problems i just wanna jump 
 
E--0-0---------0--0-0-----------0-0---------0-0--------| 
A--2-2----7----2--2-2-----7-----2-2----7----2-2--7--7~-| 
D--2-2----9----2--2-2-----9-----2-2----9----2-2--9--7~-| 
G---------9---------------9------------9---------9--7~-| 
B------------------------------------------------------| 
E------------------------------------------------------| 
 
Depois: 
 
E---------------3~---| 
A------5--------5~---| 
D------7--------5~---| 
G------7-------------| x2 
B--------------------| 
E--------------------| 
 
Depois 
 
E-------------------------------------------------------| 
A-4-4-4-4-4-4-4-4-4-4-4-4-4-4-4-6-6-6-6-6-6-6-6-6-6-6-6-| 
D-6-6-6-6-6-6-6-6-6-6-6-6-6-6-6-8-8-8-8-8-8-8-8-8-8-8-8-| 
G-6-6-6-6-6-6-6-6-6-6-6-6-6-6-6-8-8-8-8-8-8-8-8-8-8-8-8-| x2 
B-------------------------------------------------------| 
E-------------------------------------------------------| 
 
Depois 
 
" I cant take it anymore..." 
 
E--------------------------------------------------| 
A--------------------------------------------------| 
D---5---5--5--5-5--5---5--5-5---5-5--5-5-----------| 
G-----4---4--4----4--4---4----4-----4----4-4-------| 
B--------------------------------------------------| 
E--------------------------------------------------| 
 
Refrao 
 
"Jump,  Dont   wanna     think     about    tomarrow 
 
E--0-0---------0--0-0-----------0-0---------0-0--------| 
A--2-2----7----2--2-2-----7-----2-2----7----2-2--7--7~-| 
D--2-2----9----2--2-2-----9-----2-2----9----2-2--9--7~-| 
G---------9---------------9------------9---------9--7~-| 
B------------------------------------------------------| 
E------------------------------------------------------| 
 
"Jump, I just dont care tonight, I  just  wanna  jump 
 
E--0-0---------0--0-0-----------0-0---------0-0--------| 
A--2-2----7----2--2-2-----7-----2-2----7----2-2--7--7~-| 
D--2-2----9----2--2-2-----9-----2-2----9----2-2--9--7~-| 
G---------9---------------9------------9---------9--7~-| 
B------------------------------------------------------| 
E------------------------------------------------------| 
 
"Jump,  Dont   wanna    think   about  my    sorrow 
 
E--0-0---------0--0-0-----------0-0---------0-0--------| 
A--2-2----7----2--2-2-----7-----2-2----7----2-2--7--7~-| 
D--2-2----9----2--2-2-----9-----2-2----9----2-2--9--7~-| 
G---------9---------------9------------9---------9--7~-| 
B------------------------------------------------------| 
E------------------------------------------------------| 
 
"Lets go... Whoo Ooh,Forget your problems, time to let them go 
 
E--0-0---------0--0-0-----------0-0---------0-0--------| 
A--2-2----7----2--2-2-----7-----2-2----7----2-2--7--7~-| 
D--2-2----9----2--2-2-----9-----2-2----9----2-2--9--7~-| 
G---------9---------------9------------9---------9--7~-| 
B------------------------------------------------------| 
E------------------------------------------------------| 
 
Whoo Ooh,  Forget   tomarrow   I   just  wanna   jump 
 
 
E--0-0---------0--0-0-----------0-0---------0-0--------| 
A--2-2----7----2--2-2-----7-----2-2----7----2-2--7--7~-| 
D--2-2----9----2--2-2-----9-----2-2----9----2-2--9--7~-| 
G---------9---------------9------------9---------9--7~-| 
B------------------------------------------------------| 
E------------------------------------------------------| 
 
I just wanna jump, I just wanna jump, yeah, i just wanna jump 
 
E--0-0---------0--0-0-----------0-0---------0-0---------| 
A--2-2----7----2--2-2-----7-----2-2----7----2-2--7--7~--| 
D--2-2----9----2--2-2-----9-----2-2----9----2-2--9--7~--| 
G---------9---------------9------------9---------9--7~--| x2 
B-------------------------------------------------------| 
E-------------------------------------------------------| 
 
                       I  just    wanna    jump 
 
 
E--0-0---------0--0-0-----------0-0---------0-0--------| 
A--2-2----7----2--2-2-----7-----2-2----7----2-2--7--7~-| 
D--2-2----9----2--2-2-----9-----2-2----9----2-2--9--7~-| 
G---------9---------------9------------9---------9--7~-| 
B------------------------------------------------------| 
E------------------------------------------------------| 

		  

auto scroll beats size up size down change color hide chords drawings
tab show chords e-chords YouTube Clip e-chords hide all tabs e-chords go to top tab

share