Ben Howard

home > Ben Howard > chords

Further Away Tab

Ben Howard

Difficulty: AdvancedAdvanced

by carlluz

tuner correct add songbook print version text version rtf version e-mail
chordsukulelecavacokeyboardtabbassdrumsharmonicsflute Guitar Pro
chords

Further Away

	  

Capo 1 

intro part 1: 

e|-------7----------------------x---|------7------7--------------------------| 
B|------7-----------------------x---|-----7-------7--------------------------| 
G|-----4------------------------x---|----4-----------------------------------| 
D|------------------------------x---|--------------------------(x)-4---------| 
A|------------------------------x---|--------------------2h4h6-(x)----6--4p2-| 
E|--0---------------------------x---|-0-------0-------0---------0------------| 

e|----2-----2-----------------------|------7-----7---------------------------| 
B|----2-----2---------4-------------|-----7------7---------------------------| 
G|--------------------4-------------|----4-----------------------------------| 
D|--------------------4----4--------|------------------------(x)-4h6p4-------| 
A|---------------4h6--5------6--4p2-|------------------2h4h6-(x)--------6p4--| 
E|-4-----4-----4------4--4----------|-0-------0-----0---------0-0------------| 


e|----2-----2-----------------------|----------------------------------------| 
B|----2-----2---------4-------------|------7----7----7--------7----7----7----| 
G|--------------------4-------------|------4----4----4--------4----4----4----| 
D|--------------------4----4--------|------4----4----4--------4----4----4----| 
A|---------------4h6--5------6--4p2-|----------------------------------------| 
E|-4-----4-----4------4--4----------|--0------0----0------0------0----0------| 

intro part 2: 

e|-------2--------2-----------2----------2-----| 
B|------0------0--0-----------0----------0-----| 
G|-----4-----4----4--4-----3--3--3----1--1--1--| 
D|----------------x-----------x----------x-----| 
A|-2-------1------1-----------x----------x-----| 
E|----------------------4-----4-----2----2-----| 

e|-------------0----------|    e|----------| 
B|------------------------|    B|----------| 
G|------------------------| x3    G|-------| 
D|-----4s6-----------6----|    D|--6~------| 
A|----------------0-------|    A|----------| 
E|--0-------0-------------|    E|--0-------| 

verse: 

e|-----7-----7------------------------|----2-----2---------4-------------| 
B|----7------7------------------------|----2-----2---------4-------------| 
G|---4--------------------------------|--------------------4-------------| 
D|----------------------(x)-4---------|--------------------4----4--------| 
A|----------------2h4h6-(x)----6--4p2-|---------------4h6--5------6--4p2-| 
E|-0------0----0---------0------------|-4-----4-----4------4--4----------| 

repeat this five times then: 

e|----------------------------------------| 
B|------7----7----7--------7----7----7----| 
G|------4----4----4--------4----4----4----| 
D|------4----4----4--------4----4----4----| 
A|----------------------------------------| 
E|--0------0----0------0------0----0------| 

intro part 2 

Chorus: (a+b x2 and then c) 

   (a) 
e|--------------------------------|--------------------------------| 
B|--------------------------------|--------------------------------| 
G|-----4-----6-----8-----6-----4--|-----4-----6-----8-----6-----4--| 
D|--------------------------------|--------------------------------| 
A|-----2--------4-----6--------2--|-----2--------4-----6--------2--| 
E|--0-----0--------0--------0-----|--0-----0--------0--------0-----| 

    (b)                                        (c) 
e|--------2-----------3--3-----3------------|----7--| 
B|-----------------------0------------------|---7---| 
G|--------------4--------4-----------4------|--4----| 
D|-----------------------0------------------|-------| 
A|--2--2-----2-----1-----1--1-----1-----2---|-------| 
E|------------------------------------------|-------| 
                                             now 

verse (same as before) 

chorus (a+b x3 then d then b+c) 

   (a) 
e|--------------------------------|--------------------------------| 
B|--------------------------------|--------------------------------| 
G|-----4-----6-----8-----6-----4--|-----4-----6-----8-----6-----4--| 
D|--------------------------------|--------------------------------| 
A|-----2--------4-----6--------2--|-----2--------4-----6--------2--| 
E|--0-----0--------0--------0-----|--0-----0--------0--------0-----| 

    (b)                                        (c) 
e|--------2-----------3--3-----3------------|----7--| 
B|-----------------------0------------------|---7---| 
G|--------------4--------4-----------4------|--4----| 
D|-----------------------0------------------|-------| 
A|--2--2-----2-----1-----1--1-----1-----2---|-------| 
E|------------------------------------------|-------| 

    (d) 
e|----------------------------------------| 
B|------7----7----7--------7----7----7----| 
G|------4----4----4--------4----4----4----| 
D|------4----4----4--------4----4----4----| 
A|----------------------------------------| 
E|--0------0----0------0------0----0------| 


ending: 

e|-------7----------------------x---|------7------7---------------------| 
B|------7-----------------------x---|-----7-------7---------------------| 
G|-----4------------------------x---|----4------------------------------| 
D|------------------------------x---|--------------------6--4-----------| 
A|------------------------------x---|--------------------------4--4s2---| 
E|--0---------------------------x---|-0-------0-------0--0--------0-----| 

e|----2-----2-----------------------|------7-----7----------------------| 
B|----2-----2-----------------------|-----7------7----------------------| 
G|----------------------------------|----4------------------------------| 
D|----------------6--4--------------|---------------------6--4----------| 
A|----------------------6--4s2------|---------------------------6--4s2--| 
E|-4-----4-----4--4--------4--------|-0-------0-----0--0--0--------0----| 




e|----2-----2-----------------------|-----------------------------------| 
B|----2-----2---------4-------------|-----------------------------------| 
G|--------------------4-------------|-----6--4--------------------------| 
D|--------------------4----4--------|-----------6--4s2-----6--4---------| 
A|---------------4h6--5------6--4p2-|----------------------------6--4s2-| 
E|-4-----4-----4------4--4----------|--0--0--------0----0--0--------0---| 

repeat till fade out 
 
	  

Request the video "Further Away"  -  Send "Further Away" Ringtone to your Cell

there isn't a video lesson for this song

request
Search
auto scroll beats size up size down change color hide chords drawings
tab show chords e-chords YouTube Clip e-chords hide all tabs e-chords go to top tab