Avenged Sevenfold

home > Avenged Se... > chords

Carry On Tab

Avenged Sevenfold

Difficulty: ExpertExpert

by robepoiel

tuner correct add songbook print version text version rtf version e-mail
chordsukulelecavacokeyboardtabbassdrumsharmonicsflute Guitar Pro
chords

Carry On

	  

Intro 
Guitar 1 (Left): 
E||----------------|---------------------|--------12-13-13~---15/17-17~--| 
B||--------6-5-6~--|--8~---/13-\8-/-10~--|--15~--------------------------| 
G||--/7~-----------|---------------------|-------------------------------| 
D||----------------|---------------------|-------------------------------| 
A||----------------|---------------------|-------------------------------| 
D||----------------|---------------------|-------------------------------| 


Guitar 2 (Right): 
E||-----------------|--------------------|--6~---8-10----------8-9~--| 
B||--/6~--10-8-10~--|-/5~---/10-\5-/-6~--|------------10~---11-------| 
G||-----------------|--------------------|---------------------------| 
D||-----------------|--------------------|---------------------------| 
A||-----------------|--------------------|---------------------------| 
D||-----------------|--------------------|---------------------------| 


Guitar 3: 
E||---------------|---------------|------------------------| 
B||---------------|---------------|------------------------| 
G||---------------|--5~-----------|--3~---3-3----------2~--| 
D||--0~---0-2-3~--|--5~---3-2-0~--|--3~---3-3-3~---3-3-2~--| 
A||--0~---0-2-3~--|--3~---3-2-0~--|--1~---1-1-3~---3-3-0~--| 
D||--0~---0-2-3~--|-------3-2-0~--|-----------3~---3-3-----| 



Pre-Verse 
Guitar 1/2: 
E||------------| 
B||------------| 
G||------------| 
D||--pick------| 
A||-----slide--| 
D||------------| 


Guitar 3: 
E||------------------------------------| 
B||------------------------------------| 
G||------------------------------------| 
D||--0----------------------------2-3--| x2 
A||--0----------------------------2-3--| 
D||--0-00000000000000000000000000-2-3--| 
       .......................... 



Guitar 1: 
E||--17-13----------13-16-13----------13-15-13----------13-12~--| 
B||--------15----15----------15----15----------15----14---------| 
G||-----------14----------------14----------------14------------| 
D||-------------------------------------------------------------| 
A||-------------------------------------------------------------| 
D||-------------------------------------------------------------| 


E||--13-10----------10-12-10----------10------------------------| 
B||--------10----10----------10----10----13-10----------10------| 
G||-----------10----------------10-------------10----10----13~--| 
D||-----------------------------------------------12------------| 
A||-------------------------------------------------------------| 
D||-------------------------------------------------------------| 


E||--------------13-16-17-13-----------------------------------| 
B||-----------15-------------15----17-15----15-14--------------| 
G||--------14-------------------14-------14-------14-17-14-----| 
D||-----15-------------------------------------------------15--| 
A||--17--------------------------------------------------------| 
D||------------------------------------------------------------| 


E||-----------------------------------15-17----------| 
B||-----------------------14-15-17-18----------------| 
G||-----------------14-15----------------------------| 
D||--------14-15-17--------------------------('3~w)--| 
A||--16-17-------------------------------------------| 
D||--------------------------------------------------| 


Guitar 2: 
E||------------------------------------|------------------------------| 
B||------------------------------------|------------------------------| 
G||------------------------------------|------------------------------| 
D||--0----------------------------2-3--|--0------------------------0--| 
A||--0----------------------------2-3--|--0------------------------0--| 
D||--0-00000000000000000000000000-2-3--|--0-0000000000000000000000-0--| 
       ..........................           ...................... 



Verse 
Guitar 1/2: 
E||-------------------------------------| 
B||-------------------------------------| 
G||-------------------------------------| 
D||--2-------2---2---2-2-------2--4--5--| x2 
A||--2-------2---2---2-2-------2--4--5--| 
D||--2-2222222--22--22-2-2222222--4--5--| 
       ......   .   .    ...... 


Guitar 1: 
E||--------------------------| 
B||-------'7~---'5~----------| 
G||--'5~------------'3~---w--| 
D||--------------------------| 
A||--------------------------| 
D||--------------------------| 


Guitar 2: 
E||-----------------------------------| 
B||-----------------------------------| 
G||-----------------------------------| 
D||--0-0--00-0-0--00-0-0--00-0--5--0--| 
A||--0-0--00-0-0--00-0-0--00-0--5--0--| 
D||--0-0--00-0-0--00-0-0--00-0--5--0--| 


Guitar 1/2: 
E||----------------------------------------| 
B||----------------------------------------| 
G||----------------------------------------| 
D||--2--------2---2---2--2--------2--4--5--| x2 
A||--2--------2---2---2--2--------2--4--5--| 
D||--2-222222-2--22--22--2-222222-2--4--5--| 
       ......    .   .     ...... 


Guitar 1: 
E||-----------------------------------| 
B||-----------------------------------| 
G||-----------------------------------| 
D||--0-0--00-0-0--00-0-0--00-0--5--0--| 
A||--0-0--00-0-0--00-0-0--00-0--5--0--| 
D||--0-0--00-0-0--00-0-0--00-0--5--0--| 


Guitar 2: 
E||-------------------| 
B||------'7~----'7w~--| 
G||----'7-------------| 
D||--'7---------------| 
A||-------------------| 
D||-------------------| 



Pre-Chorus 
Guitar 1: 
E||----------------------------------------------9-10-12-13--| 
B||--10~-----10h11p10-9~--------------------9-10-------------| 
G||--------------------------12~----9-10-12------------------| 
D||----------------------------------------------------------| 
A||----------------------------------------------------------| 
D||----------------------------------------------------------| 


Guitar 2: 
E||----------------------------------------9-10-12-13-12-10--| 
B||-----------------------------------9-10-------------------| 
G||--10~-----10h12p10-9~-----8~----10------------------------| 
D||----------------------------------------------------------| 
A||----------------------------------------------------------| 
D||----------------------------------------------------------| 


Guitar 3: 
E||---------------------------------------------------------------| 
B||---------------------------------------------------------------| 
G||---------------------------------------------------------------| 
D||--0-0--00-0-0--00-2-2--22-2-2--22-5-5--55-5-5--55-0---0---0-0--| 
A||--0-0--00-0-0--00-2-2--22-2-2--22-5-5--55-5-5--55-0---0---0-0--| 
D||--0-0--00-0-0--00-2-2--22-2-2--22-5-5--55-5-5--55-0---0---0-0--| 



Chorus 
Guitar 1: 
E||--10~-----13~---15-17-12~-----13~----15-17-18~---17-15-17-13---15-17~-----9~--10~--| 
B||-----------------------------------------------------------------------------------| 
G||-----------------------------------------------------------------------------------| 
D||-----------------------------------------------------------------------------------| 
A||-----------------------------------------------------------------------------------| 
D||-----------------------------------------------------------------------------------| 


E||--12~-----15~---17-19-14~-----15~----17-19-20-15----20-19-15----15-19~--| 
B||-------------------------------------------------17----------15---------| 
G||------------------------------------------------------------------------| 
D||------------------------------------------------------------------------| 
A||------------------------------------------------------------------------| 
D||------------------------------------------------------------------------| 


Guitar 2: 
E||--13~-----17~---18-20-15~-----17~----18-20-22~---20-18-20-17---18-21~-----12~--13~--| 
B||------------------------------------------------------------------------------------| 
G||------------------------------------------------------------------------------------| 
D||------------------------------------------------------------------------------------| 
A||------------------------------------------------------------------------------------| 
D||------------------------------------------------------------------------------------| 


E||--15~-----19~---20-22-17~-----19~----20-22-24-20----24-22-19----19-23~--| 
B||-------------------------------------------------20----------19---------| 
G||------------------------------------------------------------------------| 
D||------------------------------------------------------------------------| 
A||------------------------------------------------------------------------| 
D||------------------------------------------------------------------------| 


Guitar 3: 
E||-------------------------------------------------------------------| 
B||-------------------------------------------------------------------| 
G||----------------------------------5-5--55-5-5--55------------------| 
D||--0-0--00-0-0--00-3-3--33-3-3--33-5-5--55-5-5--55-0-0--00-0-0--00--| 
A||--0-0--00-0-0--00-3-3--33-3-3--33-3-3--33-3-3--33-0-0--00-0-0--00--| 
D||--0-0--00-0-0--00-3-3--33-3-3--33-----------------0-0--00-0-0--00--| 


E||-------------------------------------------------------------------| 
B||-------------------------------------------------------------------| 
G||--3-3--33-3-3--33-----------------2-2--22-2-2--22-2-2--22-2-2--22--| 
D||--3-3--33-3-3--33-3-3--33-3-3--33-2-2--22-2-2--22-2-2--22-2-2--22--| 
A||--1-1--11-1-1--11-3-3--33-3-3--33-0-0--00-0-0--00-0-0--00-0-0--00--| 
D||------------------3-3--33-3-3--33----------------------------------| 


E||-------------------------------------------------------------------| 
B||-------------------------------------------------------------------| 
G||----------------------------------5-5--77-7-7--77------------------| 
D||--2-2--22-2-2--22-5-5--55-5-5--55-5-5--77-7-7--77-2-2--22-2-2--22--| 
A||--2-2--22-2-2--22-5-5--55-5-5--55-5-5--55-5-5--55-2-2--22-2-2--22--| 
D||--2-2--22-2-2--22-5-5--55-5-5--55-----------------2-2--22-2-2--22--| 


E||-------------------------------------------------------------------| 
B||-------------------------------------------------------------------| 
G||--5-5--55-5-5--55-----------------4-4--44-4-4--44-4-4--44-4-4--44--| 
D||--5-5--55-5-5--55-5-5--55-5-5--55-4-4--44-4-4--44-4-4--44-4-4--44--| 
A||--3-3--33-3-3--33-5-5--55-5-5--55-2-2--22-2-2--22-2-2--22-2-2--22--| 
D||------------------5-5--55-5-5--55----------------------------------| 



Pre-Verse 
Guitar 1/2: 
E||------------------------------------|----------------------------| 
B||------------------------------------|----------------------------| 
G||------------------------------------|----------------------------| 
D||--0----------------------------2-3--|--0-------------------------| 
A||--0----------------------------2-3--|--0-------------------------| 
D||--0-00000000000000000000000000-2-3--|--0-0000000000000000000000--| 
       ..........................           ...................... 



Verse 
Guitar 1/2: 
E||-------------------------------------| 
B||-------------------------------------| 
G||-------------------------------------| 
D||--2-------2---2---2-2-------2--4--5--| x2 
A||--2-------2---2---2-2-------2--4--5--| 
D||--2-2222222--22--22-2-2222222--4--5--| 
       ......   .   .    ...... 


Guitar 1: 
E||--'5~---------------------| 
B||-----'5~------'7~------w--| 
G||----------'5~-------------| 
D||--------------------------| 
A||--------------------------| 
D||--------------------------| 


Guitar 2: 
E||-----------------------------------| 
B||-----------------------------------| 
G||-----------------------------------| 
D||--0-0--00-0-0--00-0-0--00-0--5--0--| 
A||--0-0--00-0-0--00-0-0--00-0--5--0--| 
D||--0-0--00-0-0--00-0-0--00-0--5--0--| 


Guitar 1/2: 
E||----------------------------------------| 
B||----------------------------------------| 
G||----------------------------------------| 
D||--2--------2---2---2--2--------2--4--5--| x2 
A||--2--------2---2---2--2--------2--4--5--| 
D||--2-222222-2--22--22--2-222222-2--4--5--| 
       ......    .   .     ...... 


Guitar 1: 
E||-----------------------------------| 
B||-----------------------------------| 
G||-----------------------------------| 
D||--0-0--00-0-0--00-0-0--00-0--5--0--| 
A||--0-0--00-0-0--00-0-0--00-0--5--0--| 
D||--0-0--00-0-0--00-0-0--00-0--5--0--| 


Guitar 2: 
E||-------------------------| 
B||------'7~----------------| 
G||--'5~------'7~-----------| 
D||---------------'7~---w~--| 
A||-------------------------| 
D||-------------------------| 



Pre-Chorus 
Guitar 1: 
E||----------------------------------------------9-10-12-13--| 
B||--10~-----10h11p10-9~--------------------9-10-------------| 
G||--------------------------12~----9-10-12------------------| 
D||----------------------------------------------------------| 
A||----------------------------------------------------------| 
D||----------------------------------------------------------| 


Guitar 2: 
E||----------------------------------------9-10-12-13-12-10--| 
B||-----------------------------------9-10-------------------| 
G||--10~-----10h12p10-9~-----8~----10------------------------| 
D||----------------------------------------------------------| 
A||----------------------------------------------------------| 
D||----------------------------------------------------------| 


Guitar 3: 
E||---------------------------------------------------------------| 
B||---------------------------------------------------------------| 
G||---------------------------------------------------------------| 
D||--0-0--00-0-0--00-2-2--22-2-2--22-5-5--55-5-5--55-0---0---0-0--| 
A||--0-0--00-0-0--00-2-2--22-2-2--22-5-5--55-5-5--55-0---0---0-0--| 
D||--0-0--00-0-0--00-2-2--22-2-2--22-5-5--55-5-5--55-0---0---0-0--| 



Chorus 
Guitar 1: 
E||--10~-----13~---15-17-12~-----13~----15-17-18~---17-15-17-13---15-17~-----9~--10~--| 
B||-----------------------------------------------------------------------------------| 
G||-----------------------------------------------------------------------------------| 
D||-----------------------------------------------------------------------------------| 
A||-----------------------------------------------------------------------------------| 
D||-----------------------------------------------------------------------------------| 


E||--12~-----15~---17-19-14~-----15~----17-19-20-15----20-19-15----15-19~--| 
B||-------------------------------------------------17----------15---------| 
G||------------------------------------------------------------------------| 
D||------------------------------------------------------------------------| 
A||------------------------------------------------------------------------| 
D||------------------------------------------------------------------------| 


Guitar 2: 
E||--13~-----17~---18-20-15~-----17~----18-20-22~---20-18-20-17---18-21~-----12~--13~--| 
B||------------------------------------------------------------------------------------| 
G||------------------------------------------------------------------------------------| 
D||------------------------------------------------------------------------------------| 
A||------------------------------------------------------------------------------------| 
D||------------------------------------------------------------------------------------| 


E||--15~-----19~---20-22-17~-----19~----20-22-24-20----24-22-19----19-23~--| 
B||-------------------------------------------------20----------19---------| 
G||------------------------------------------------------------------------| 
D||------------------------------------------------------------------------| 
A||------------------------------------------------------------------------| 
D||------------------------------------------------------------------------| 


Guitar 3: 
E||-------------------------------------------------------------------| 
B||-------------------------------------------------------------------| 
G||----------------------------------5-5--55-5-5--55------------------| 
D||--0-0--00-0-0--00-3-3--33-3-3--33-5-5--55-5-5--55-0-0--00-0-0--00--| 
A||--0-0--00-0-0--00-3-3--33-3-3--33-3-3--33-3-3--33-0-0--00-0-0--00--| 
D||--0-0--00-0-0--00-3-3--33-3-3--33-----------------0-0--00-0-0--00--| 


E||-------------------------------------------------------------------| 
B||-------------------------------------------------------------------| 
G||--3-3--33-3-3--33-----------------2-2--22-2-2--22-2-2--22-2-2--22--| 
D||--3-3--33-3-3--33-3-3--33-3-3--33-2-2--22-2-2--22-2-2--22-2-2--22--| 
A||--1-1--11-1-1--11-3-3--33-3-3--33-0-0--00-0-0--00-0-0--00-0-0--00--| 
D||------------------3-3--33-3-3--33----------------------------------| 


E||-------------------------------------------------------------------| 
B||-------------------------------------------------------------------| 
G||----------------------------------5-5--77-7-7--77------------------| 
D||--2-2--22-2-2--22-5-5--55-5-5--55-5-5--77-7-7--77-2-2--22-2-2--22--| 
A||--2-2--22-2-2--22-5-5--55-5-5--55-5-5--55-5-5--55-2-2--22-2-2--22--| 
D||--2-2--22-2-2--22-5-5--55-5-5--55-----------------2-2--22-2-2--22--| 


E||-------------------------------------------------------------------| 
B||-------------------------------------------------------------------| 
G||--5-5--55-5-5--55-----------------4-4--44-4-4--44-4-4--44-4-4--44--| 
D||--5-5--55-5-5--55-5-5--55-5-5--55-4-4--44-4-4--44-4-4--44-4-4--44--| 
A||--3-3--33-3-3--33-5-5--55-5-5--55-2-2--22-2-2--22-2-2--22-2-2--22--| 
D||------------------5-5--55-5-5--55----------------------------------| 



Dual Bridge 
Guitar 1: 
E||--12------12------12------12------14------14------14------14--------| 
B||----12--12--12--12--12--12--12--12--15--15--15--15--15--15--15--15--| 
G||------12------12------12------12------14------14------14------14----| 
D||--------------------------------------------------------------------| 
A||--------------------------------------------------------------------| 
D||--------------------------------------------------------------------| 


E||--15------15------15------15------12------12------12------12--------| 
B||----15--15--15--15--15--15--15--15--13--13--13--13--13--13--13--13--| 
G||------16------16------16------16------12------12------12------12----| 
D||--------------------------------------------------------------------| 
A||--------------------------------------------------------------------| 
D||--------------------------------------------------------------------| 


Guitar 2: 
E||--15-12--12-15-12--12-15-12--12-15-12--12-17-14--14-17-14--14-17-14--14-17-14--14--| 
B||-------12--------12--------12--------12--------15--------15--------15--------15----| 
G||-----------------------------------------------------------------------------------| 
D||-----------------------------------------------------------------------------------| 
A||-----------------------------------------------------------------------------------| 
D||-----------------------------------------------------------------------------------| 


E||--19-15--15-19-15--15-19-15--15-19-15--15-15-12--12-15-12--12-15-12--12-15-12--12--| 
B||-------15--------15--------15--------15--------13--------13--------13--------13----| 
G||-----------------------------------------------------------------------------------| 
D||-----------------------------------------------------------------------------------| 
A||-----------------------------------------------------------------------------------| 
D||-----------------------------------------------------------------------------------| 


Guitar 3: 
E||-------------------------------------------------------------------| 
B||-------------------------------------------------------------------| 
G||------------------7-7--77-7-7--77-----------------5-5--55-5-5--55--| 
D||--2-2--22-2-2--22-7-7--77-7-7--77-5-5--55-5-5--55-5-5--55-5-5--55--| 
A||--2-2--22-2-2--22-5-5--55-5-5--55-5-5--55-5-5--55-3-3--33-3-3--33--| 
D||--2-2--22-2-2--22-----------------5-5--55-5-5--55------------------| 




Guitar 1: 
E||--12------12------12------12------14------14------14------14--------| 
B||----12--12--12--12--12--12--12--12--15--15--15--15--15--15--15--15--| 
G||------12------12------12------12------14------14------14------14----| 
D||--------------------------------------------------------------------| 
A||--------------------------------------------------------------------| 
D||--------------------------------------------------------------------| 


E||--10------10------10------14------12------12------12------12--------| 
B||----12--12--12--12--12--12--12--12--13--13--13--13--13--13--13--13--| 
G||------11------11------11------11------12------12------12------12----| 
D||--------------------------------------------------------------------| 
A||--------------------------------------------------------------------| 
D||--------------------------------------------------------------------| 


Guitar 2: 
E||--15-12--12-15-12--12-15-12--12-15-12--12-17-14--14-17-14--14-17-14--14-17-14--14--| 
B||-------12--------12--------12--------12--------15--------15--------15--------15----| 
G||-----------------------------------------------------------------------------------| 
D||-----------------------------------------------------------------------------------| 
A||-----------------------------------------------------------------------------------| 
D||-----------------------------------------------------------------------------------| 


E||--14------14------14------17------15-12--12-15-12--12-15-12--12-15-12--12--| 
B||----15--15--15--15--15--15--15--15-----13--------13--------13--------13----| 
G||------16------16------16------16-------------------------------------------| 
D||---------------------------------------------------------------------------| 
A||---------------------------------------------------------------------------| 
D||---------------------------------------------------------------------------| 


Guitar 3: 
E||-------------------------------------------------------------------| 
B||-------------------------------------------------------------------| 
G||------------------7-7--77-7-7--77-4-4--44-4-4--44-5-5--55-5-5--55--| 
D||--2-2--22-2-2--22-7-7--77-7-7--77-4-4--44-4-4--44-5-5--55-5-5--55--| 
A||--2-2--22-2-2--22-5-5--55-5-5--55-2-2--22-2-2--22-3-3--33-3-3--33--| 
D||--2-2--22-2-2--22--------------------------------------------------| 




Guitar 1: 
E||--8---------8---------8---------8---------7-------7-------7---------| 
B||----10---10---10---10---10---10---10---10---8---8---8---8---8---8---| 
G||-------9---------9---------9---------9--------9-------9-------9-----| 
D||--------------------------------------------------------------------| 
A||--------------------------------------------------------------------| 
D||--------------------------------------------------------------------| 

E||--7-------7-------7-------7-------7-------7--------------------------| 
B||----7---7---7---7---7---7---7---7---8---8---8---8-10-7---7-10-7---7--| 
G||------8-------8-------8-------8-------9-------9--------7--------7----| 
D||---------------------------------------------------------------------| 
A||---------------------------------------------------------------------| 
D||---------------------------------------------------------------------| 


Guitar 2: 
E||--12------12------12------12------12------12------12------12--------| 
B||----13--13--13--13--13--13--13--13--12--12--12--12--12--12--12--12--| 
G||------14------14------14------14------12------12------12------12----| 
D||--------------------------------------------------------------------| 
A||--------------------------------------------------------------------| 
D||--------------------------------------------------------------------| 


E||--11------11------11------11------12------12------10------10--------| 
B||----12--12--12--12--12--12--12--12--12--12--12--12--10--10--10--10--| 
G||------11------11------11------11------12------12------11------11----| 
D||--------------------------------------------------------------------| 
A||--------------------------------------------------------------------| 
D||--------------------------------------------------------------------| 


Guitar 3: 
E||-------------------------------------------------------------------| 
B||-------------------------------------------------------------------| 
G||--2-2--22-2-2--22-----------------4-4--44-4-4--44---------7-7--77--| 
D||--2-2--22-2-2--22-5-5--55-5-5--55-4-4--44-4-4--44-2-2--22-7-7--77--| 
A||--0-0--00-0-0--00-5-5--55-5-5--55-2-2--22-2-2--22-2-2--22-5-5--55--| 
D||------------------5-5--55-5-5--55-----------------2-2--22----------| 




Guitar 1: 
D||-------------------------------------------------------------------------------| 
E||--8--------8--------8--------8--------10--------10-----------------------------| 
B||----9----9---9----9---9----9---9----9----9----9----9----9-12-9----9-11-9----9--| 
G||------10-------10-------10-------10--------10--------10--------10--------10----| 
D||-------------------------------------------------------------------------------| 
A||-------------------------------------------------------------------------------| 


E||----------------------------------7-------7-------7-------7-----------| 
B||--10------10------10------10--------8---8---8---8---7---7---7---7-----| 
G||----11--11--11--11--11--11--11--11----7-------7-------8-------8---9\--| 
D||------12------12------12------12--------------------------------------| 
A||----------------------------------------------------------------------| 
D||----------------------------------------------------------------------| 


Guitar 2: 
E||--8-------8-------8-------8-------8---------8---------7--------10---------| 
B||----8---8---8---8---8---8---8---8---10---10---10---10---10---10--10---10--| 
G||------9-------9-------9-------9--------9---------9---------9--------9-----| 
D||--------------------------------------------------------------------------| 
A||--------------------------------------------------------------------------| 
D||--------------------------------------------------------------------------| 


E||--10------10------10------10------10------10------14-11--11-14-11--11-12\--| 
B||----10--10--10--10--10--10--10--10--12--12--12--12-----12--------12--------| 
G||------11------11------11------11------11------11---------------------------| 
D||---------------------------------------------------------------------------| 
A||---------------------------------------------------------------------------| 
D||---------------------------------------------------------------------------| 


Guitar 3: 
E||-----------------------------------------------------------------| 
B||-----------------------------------------------------------------| 
G||--5-5--55-5-5--55-----------------7-7--77-7-7--77----4-----------| 
D||--5-5--55-5-5--55-7-7--77-7-7--77-7-7--77-7-7--77-5--4--0--4--4--| 
A||--3-3--33-3-3--33-7-7--77-7-7--77-5-5--55-5-5--55-5--2--0--4--2--| 
D||------------------7-7--77-7-7--77-----------------5-----0--4--2--| 



Drum Solo 
Guitar 2: 
E||---------|---------|---------|-------| 
B||---------|---------|---------|-------| 
G||---------|---------|---------|-------| 
D||--4-5-2--|--4-5-2--|--4-5-2--|--4-5--| 
A||--4-5-2--|--4-5-2--|--4-5-2--|--4-5--| 
D||--4-5-2--|--4-5-2--|--4-5-2--|--4-5--| 


Guitar 1: 
E||---------|---------|------------------| 
B||---------|---------|------------------| 
G||---------|---------|------------------| 
D||---------|---------|--------pick------| 
A||---------|---------|-----------slide--| 
D||---------|---------|------------------| 



Solo 
Guitar 1: 
E||-----------17----------15----------13--------------------------------| 
B||--------15----15----15----15----15----15----15-17-15----17-15--------| 
G||-----14----------14----------14----------14----------14-------14-----| 
D||--15-------------------------------------------------------------15--| 
A||---------------------------------------------------------------------| 
D||---------------------------------------------------------------------| 


E||--------------------15----15h17--| 
B||--------------15-------15--------| 
G||-----------14----14--------------| 
D||-----14-15-----------------------| 
A||--17-----------------------------| 
D||---------------------------------| 


E||-----------17----------15----------13-----------------------------| 
B||--------15----15----15----15----15----15----15-17-15----17-15-----| 
G||-----14----------14----------14----------14----------14-------14--| 
D||--15--------------------------------------------------------------| 
A||------------------------------------------------------------------| 
D||------------------------------------------------------------------| 


E||-----------15-12----17-13----20-22--| 
B||--18-17----------13-------15--------| 
G||--------14--------------------------| 
D||------------------------------------| 
A||------------------------------------| 
D||------------------------------------| 


Guitar 2: 
E||------------------------------------| 
B||------------------------------------| 
G||------------------------------------| 
D||--0----------------------------2-3--| x2 
A||--0----------------------------2-3--| 
D||--0-00000000000000000000000000-2-3--| 
       .......................... 



Guitar 1: 
      T T T T T T  T T T  T T T T T T  T T T  T T T T T T  T T T  T T T T T T  T T T 
E||--/171717171717\131313/151515151515\121212/131313131313\101010/121212121212-131313--| 
B||------------------------------------------------------------------------------------| 
G||------------------------------------------------------------------------------------| 
D||------------------------------------------------------------------------------------| 
A||------------------------------------------------------------------------------------| 
D||------------------------------------------------------------------------------------| 


Guitar 2: 
      T T T T T T  T T T  T T T T T T  TTT T T T T T T  TTT TTTTTT T T T 
E||--/131313131313\101010/121212121212\888/101010101010\555/888888-101010--| 
B||------------------------------------------------------------------------| 
G||------------------------------------------------------------------------| 
D||------------------------------------------------------------------------| 
A||------------------------------------------------------------------------| 
D||------------------------------------------------------------------------| 


Guitar 3: 
E||------------------------------------| 
B||------------------------------------| 
G||------------------------------------| 
D||--0----------------------------2-3--| 
A||--0----------------------------2-3--| 
D||--0-00000000000000000000000000-2-3--| 
       .......................... 



Guitar 1: 
E||-----------17----------15----------13-----------------------------| 
B||--------15----15----15----15----15----15----15-17-15----17-15-----| 
G||-----14----------14----------14----------14----------14-------14--| 
D||--15--------------------------------------------------------------| 
A||------------------------------------------------------------------| 
D||------------------------------------------------------------------| 


E||-----------15-12----17-13----17-20-22~-----(20b22~r20~)--| 
B||--18-17----------13-------15-----------------------------| 
G||--------14-----------------------------------------------| 
D||---------------------------------------------------------| 
A||---------------------------------------------------------| 
D||---------------------------------------------------------| 


Guitar 2: 
E||-----------13----------12----------11--------------------| 
B||--------11----11----11----11----11----11----11-13-11-----| 
G||-----11----------11----------11----------11----------11--| 
D||--12-----------------------------------------------------| 
A||---------------------------------------------------------| 
D||---------------------------------------------------------| 


E||--15-13----17-13----20-15----20-17----------------| 
B||--------15-------15-------17-------17--15-17-18~--| 
G||--------------------------------------------------| 
D||--------------------------------------------------| 
A||--------------------------------------------------| 
D||--------------------------------------------------| 


Guitar 3: 
E||------------------------------------| 
B||------------------------------------| 
G||------------------------------------| 
D||--0----------------------------2-3--| 
A||--0----------------------------2-3--| 
D||--0-00000000000000000000000000-2-3--| 
       .......................... 



Chorus 
Guitar 1: 
E||--10~-----13~---15-17-12~-----13~----15-17-18~---17-15-17-13---15-17~-----9~--10~--| 
B||-----------------------------------------------------------------------------------| 
G||-----------------------------------------------------------------------------------| 
D||-----------------------------------------------------------------------------------| 
A||-----------------------------------------------------------------------------------| 
D||-----------------------------------------------------------------------------------| 


E||--12~-----15~---17-19-14~-----15~----17-19-20-15----20-19-15----15-19~--| 
B||-------------------------------------------------17----------15---------| 
G||------------------------------------------------------------------------| 
D||------------------------------------------------------------------------| 
A||------------------------------------------------------------------------| 
D||------------------------------------------------------------------------| 


Guitar 2: 
E||--13~-----17~---18-20-15~-----17~----18-20-22~---20-18-20-17---18-21~-----12~--13~--| 
B||------------------------------------------------------------------------------------| 
G||------------------------------------------------------------------------------------| 
D||------------------------------------------------------------------------------------| 
A||------------------------------------------------------------------------------------| 
D||------------------------------------------------------------------------------------| 


E||--15~-----19~---20-22-17~-----19~----20-22-24-20----24-22-19----19-23~--| 
B||-------------------------------------------------20----------19---------| 
G||------------------------------------------------------------------------| 
D||------------------------------------------------------------------------| 
A||------------------------------------------------------------------------| 
D||------------------------------------------------------------------------| 


Guitar 3: 
E||-------------------------------------------------------------------| 
B||-------------------------------------------------------------------| 
G||----------------------------------5-5--55-5-5--55------------------| 
D||--0-0--00-0-0--00-3-3--33-3-3--33-5-5--55-5-5--55-0-0--00-0-0--00--| 
A||--0-0--00-0-0--00-3-3--33-3-3--33-3-3--33-3-3--33-0-0--00-0-0--00--| 
D||--0-0--00-0-0--00-3-3--33-3-3--33-----------------0-0--00-0-0--00--| 


E||-------------------------------------------------------------------| 
B||-------------------------------------------------------------------| 
G||--3-3--33-3-3--33-----------------2-2--22-2-2--22-2-2--22-2-2--22--| 
D||--3-3--33-3-3--33-3-3--33-3-3--33-2-2--22-2-2--22-2-2--22-2-2--22--| 
A||--1-1--11-1-1--11-3-3--33-3-3--33-0-0--00-0-0--00-0-0--00-0-0--00--| 
D||------------------3-3--33-3-3--33----------------------------------| 


E||-------------------------------------------------------------------| 
B||-------------------------------------------------------------------| 
G||----------------------------------5-5--77-7-7--77------------------| 
D||--2-2--22-2-2--22-5-5--55-5-5--55-5-5--77-7-7--77-2-2--22-2-2--22--| 
A||--2-2--22-2-2--22-5-5--55-5-5--55-5-5--55-5-5--55-2-2--22-2-2--22--| 
D||--2-2--22-2-2--22-5-5--55-5-5--55-----------------2-2--22-2-2--22--| 


E||-------------------------------------------------------------------| 
B||-------------------------------------------------------------------| 
G||--5-5--55-5-5--55-----------------4-4--44-4-4--44-4-4--44-4-4--44--| 
D||--5-5--55-5-5--55-5-5--55-5-5--55-4-4--44-4-4--44-4-4--44-4-4--44--| 
A||--3-3--33-3-3--33-5-5--55-5-5--55-2-2--22-2-2--22-2-2--22-2-2--22--| 
D||------------------5-5--55-5-5--55----------------------------------| 



Outro 
Guitar 1: 
E||-------------------------------------------------------------| 
B||--/13~--13-13-13--12--10------10-12--10~---------------------| 
G||-------------------------12~----------------/11--\9~--7-7~---| 
D||-------------------------------------------------------------| 
A||-------------------------------------------------------------| 
D||-------------------------------------------------------------| 


E||-----------------------------------------| 
B||--/13~--13-13-13--12--10------10-12/15~--| 
G||-------------------------12~-------------| 
D||-----------------------------------------| 
A||-----------------------------------------| 
D||-----------------------------------------| 


Guitar 2: 
E||---------------------------------------------------------------| 
B||--/17~--17-17-17--15--13-12~--13-15----------------------------| 
G||-------------------------------------11~----/14--\12~--11-11~--| 
D||---------------------------------------------------------------| 
A||---------------------------------------------------------------| 
D||---------------------------------------------------------------| 


E||-----------------------------------------| 
B||--/17~--17-17-17--15--13-12~--13-15/19~--| 
G||-----------------------------------------| 
D||-----------------------------------------| 
A||-----------------------------------------| 
D||-----------------------------------------| 


Guitar 3: 
E||----------------------------------------------| 
B||----------------------------------------------| 
G||--5~---------4---44--444----------------------| 
D||--5~--5-5-5--4---44--444--0~-----4--4-5--555--| 
A||--3~--3-3-3--2~--22--222--0~-----4--4-5--555--| 
D||--------------------------0~-----4--4-5--555--| 
         . . . 

E||------------------------------| 
B||------------------------------| 
G||--5~---------4---44--44-/-7~--| 
D||--5~--5-5-5--4---44--44-/-7~--| 
A||--3~--3-3-3--2~--22--22-/-5~--| 
D||------------------------------| 
         . . . 
	  

Request the video "Carry On"  -  Send "Carry On" Ringtone to your Cell

there isn't a video lesson for this song

request
Search
auto scroll beats size up size down change color hide chords drawings
tab show chords e-chords YouTube Clip e-chords hide all tabs e-chords go to top tab