Pat Green

Carry On

Pat Green

tabs

save to print version add songbook text version e-mail correct tuner
chordsukulelecavacokeyboardtabbassdrumsharmonicaflute Guitar Pro
close

there isn't a video lesson for this song

chords

Carry On

	  		 
*********************************************************************** 
 
b   =   bend                                \   =   slide down 
 
/   =   slide up                            p   =   pulloff 
 
br  =   bend & release                      h   =   hammer-on 
 
bh  =   bend & hold                         r   =   release bend 
 
~   =   vibrato 
 
*********************************************************************** 
 
 
  w/heavy distortion 
 
E---------10----10---10----10-----10----10---10---10--12b--10------ 
B-------10----10---10----10-----10----10---10---------------------- 
G--11-12----11----9----11-----12----11----9----11------------------ 
D------------------------------------------------------------------ 
A-------------------------------------------------------------12\-- 
E-------------------------------------------------------------12\-- 
 
 
E------------------------------------------------------- 
B-----0---------------------3-3-3-3----------------15--- 
G-----0---------------------2-4-4-2--------------14--14- 
D--2/4----4\2-0---0---0-0----4-----2br-0-----0---------- 
A--------------2p0-4/5-4-2-0------------1h2p0-3/5------- 
E------------------------------------------------------- 
 
 
E------15-17--15---15-14--------10--10-10~~\-------------| 
B--17bh-----17--17r-----17\12-10--10--------------8b~~---| 
G-----------------------------------------------6b-------| 
D--------------------------------------------------------| 
A--------------------------------------------------------| 
E--------------------------------------------------------| 
		  

auto scroll beats size up size down change color hide chords drawings
tab show chords e-chords YouTube Clip e-chords hide all tabs e-chords go to top tab

share