Slipknot

home > Slipknot

Sulfur Tab

Slipknot

Difficulty: ExpertExpert

by Sick936

tuner correct add songbook print version text version save to e-mail
chordsukulelecavacokeyboardtabbassdrumsharmonicsflute Guitar Pro
chords

Sulfur

  		Tuning: B F# B E G# C# (Drop-B)  

INTRO  
---------------------------------------| 
---------------------------------------| 
---------------------------------------| 
---------------------------------------| x4 
8-----7-----3-----5-----9--8----2-----3| 
6-----5-----3-----5-----9--8----2-----3| 


(palm muted, escucha la cancion, por el ritmo)  
-----------------------------------------------------------|  
-----------------------------------------------------------|  
-----------------------------------------------------------|  
-----------------------------------------------------------|  
--------------------------------------3333-2222------------|    x 2  
---6666666666-555555555-333333-555555-----------3333-5555--|  
   . . . . . . . . . . . . . . . . . . . . . . . ... ....  

VERSE  
----------------------------------------------------------------------|  
----------------------------------------------------------------------|  
----------------------------------------------------------------------|  
----------------------------------------------------------------------|  
---------------------------------5h6p5---5---------3h5----------------|  
-5h0-0-0-0-0-0-0-1h0-0-0-0-0-0-0-------6---6-5-3-5-----0-0-0-0-0-0----|  
     . . . . . .     . . . . . .       .   . . . .     . . . . . .  

----------------------------------------------------------------------|  
----------------------------------------------------------------------|  
----------------------------------------------------------------------|  
----------------------------------------------------------------------|  
---------------------------------5h6p5---8-7-5-5-5h6p5---5------------|   x3  
-5h0-0-0-0-0-0-0-1h0-0-0-0-0-0-0-------6---------------6---6-5-3-5----|  
     . . . . . .     . . . . . .       . . . . .       .   . . . .  


INTRO  
---------------------------------------| 
---------------------------------------| 
---------------------------------------| 
---------------------------------------| x2 
8-----7-----3-----5-----9--8----2-----3| 
6-----5-----3-----5-----9--8----2-----3| 
VERSE  
----------------------------------------------------------------------|  
----------------------------------------------------------------------|  
----------------------------------------------------------------------|  
----------------------------------------------------------------------|  
---------------------------------5h6p5---5---------3h5----------------|  
-5h0-0-0-0-0-0-0-1h0-0-0-0-0-0-0-------6---6-5-3-5-----0-0-0-0-0-0----|  
     . . . . . .     . . . . . .       .   . . . .     . . . . . .  

----------------------------------------------------------------------|  
----------------------------------------------------------------------|  
----------------------------------------------------------------------|  
----------------------------------------------------------------------|  
---------------------------------5h6p5---8-7-5-5-5h6p5---5------------|   x3  
-5h0-0-0-0-0-0-0-1h0-0-0-0-0-0-0-------6---------------6---6-5-3-5----|  
     . . . . . .     . . . . . .       . . . . .       .   . . . .  

Chorus  
-------------------------------------------------------|  
-------------------------------------------------------|  
-------------------------------------------------------|  
-0---0-5-7-7--7-7-8-7-------0--0-0-5-7-7--7-7----------|  
-0---0-5-7-5--5-5-----10-8--0--0-0-5-7-5--5-5--0-0-0-0-|  
-0---0-5-7------------------0--0-0-5-7---------0-0-0-0-|  
                                               . . . .  

--------------------------------------------------------|  
--------------------------------------------------------|  
--------------------------------------------------------|  
-1---3-1-0-1---1-1-1-1-3-1-0-3---5--3-0-3-3-3-----------|  
-1---3-1-0-1---1-1-1-1-3-1-0-3---5--3-0-3-3-3-6-5-3-0---|    x 2  
-1---3-1-0-1---1-1-1-1-3-1-0-3---5--3-0-3-3-3-----------|  

INTRO  
---------------------------------------| 
---------------------------------------| 
---------------------------------------| 
---------------------------------------| x3 
8-----7-----3-----5-----9--8----2-----3| 
6-----5-----3-----5-----9--8----2-----3| 
VERSE  
----------------------------------------------------------------------|  
----------------------------------------------------------------------|  
----------------------------------------------------------------------|  
----------------------------------------------------------------------|  
---------------------------------5h6p5---5---------3h5----------------|  
-5h0-0-0-0-0-0-0-1h0-0-0-0-0-0-0-------6---6-5-3-5-----0-0-0-0-0-0----|  
     . . . . . .     . . . . . .       .   . . . .     . . . . . .  

----------------------------------------------------------------------|  
----------------------------------------------------------------------|  
----------------------------------------------------------------------|  
----------------------------------------------------------------------|  
---------------------------------5h6p5---8-7-5-5-5h6p5---5------------|   x3  
-5h0-0-0-0-0-0-0-1h0-0-0-0-0-0-0-------6---------------6---6-5-3-5----|  
     . . . . . .     . . . . . .       . . . . .       .   . . . .  

Chorus  
-------------------------------------------------------|  
-------------------------------------------------------|  
-------------------------------------------------------|  
-0---0-5-7-7--7-7-8-7-------0--0-0-5-7-7--7-7----------|  
-0---0-5-7-5--5-5-----10-8--0--0-0-5-7-5--5-5--0-0-0-0-|  
-0---0-5-7------------------0--0-0-5-7---------0-0-0-0-|  
                                               . . . .  

--------------------------------------------------------|  
--------------------------------------------------------|  
--------------------------------------------------------|  
-1---3-1-0-1---1-1-1-1-3-1-0-3---5--3-0-3-3-3-----------|  
-1---3-1-0-1---1-1-1-1-3-1-0-3---5--3-0-3-3-3-6-5-3-0---|    x 2  
-1---3-1-0-1---1-1-1-1-3-1-0-3---5--3-0-3-3-3-----------|  

INTERLUDE  
------------------------------------|  
------------------------------------|  
------------------------------------|  
-------------------8-8-8-7-7--------|   x 4  
-5-5-5-6-6-6-5-5-5------------------|  
------------------------------------|  
 . . . . . . . . .  

-------------------------------|  
-------------------------------|  
-------------------7-7-7-6-6---|  
-4-4-4-5-5-5-4-4-4-------------|    x 4  
-------------------------------|  
-------------------------------|  
 . . . . . . . . .  




Chorus  
-------------------------------------------------------|  
-------------------------------------------------------|  
-------------------------------------------------------|  
-0---0-5-7-7--7-7-8-7-------0--0-0-5-7-7--7-7----------|  
-0---0-5-7-5--5-5-----10-8--0--0-0-5-7-5--5-5--0-0-0-0-|  
-0---0-5-7------------------0--0-0-5-7---------0-0-0-0-|  
                                               . . . .  

--------------------------------------------------------|  
--------------------------------------------------------|  
--------------------------------------------------------|  
-1---3-1-0-1---1-1-1-1-3-1-0-3---5--3-0-3-3-3-----------|  
-1---3-1-0-1---1-1-1-1-3-1-0-3---5--3-0-3-3-3-6-5-3-0---|    x 4  
-1---3-1-0-1---1-1-1-1-3-1-0-3---5--3-0-3-3-3-----------|  

INTERLUDE  
------------------------------------|  
------------------------------------|  
------------------------------------|  
-------------------8-8-8-7-7--------|   x 8  
-5-5-5-6-6-6-5-5-5------------------|  
------------------------------------|  
 . . . . . . . . .  

ENDING   
---------------------------------|  
---------------------------------|  
---------------------------------|  
-0-1-0--6-55-1--0-1-0--8-77-1----|  
-0-1-0--6-55-1--0-1-0--8-77-1----| x 8  
-0-1-0--6-55-1--0-1-0--8-77-1----|  

	  

Full key step upFull key step up
Half key step upHalf key step up
Half key step downHalf key step down
Full key step downFull key step down
Search Paypal
auto scroll beats size up size down change color hide chords drawings
tab show chords e-chords YouTube Clip e-chords hide all tabs e-chords go to top tab