Alice Cooper

home > Alice Cooper

School's Out Tab

Alice Cooper

Difficulty: BeginnerBeginner

by 2u4ubyu

tuner correct add songbook print version text version save to e-mail
chordsukulelecavacokeyboardtabbassdrummharmonicsflute Guitar Pro
chords

School's Out

  		SCHOOL'S OUT 
As recorded by Alice Cooper 
(From the 1972 Album SCHOOL'S OUT) 
 
 
Words and Music by Alice Cooper & Michael Bruce 
 
C 
8 10 10 9 8 8D 
10 12 12 11 10 10Eb 
11 13 13 12 11 11G5 
3 5 x x x xBb5 
6 8 8 x x xC5 
8 10 10 x x xF5 
x 8 10 10 x xG5X 
x 10 12 12 x xF5I 
1 3 x x x xA 
5 x 7 6 5 xG/A 
5 x 5 4 3 xF 
1 x 3 2 1 1G5(type 3) 
3 5 5 x x xF(type 2) 
1 3 3 2 x xCIII 
3 3 5 5 5 xGm 
x 10 12 12 11 xFVIII 
x 8 10 10 10 x   Gtr I (E A D G B E) - 'Glen Buxton - Rhythm w/dist' 
Gtr II (E A D G B E) - 'Mike Bruce - Rhythm w/dist' 
Gtr III (E A D G B E) - 'Glen Buxton - Lead w/dist' 
Gtr IV (E A D G B E) - 'Mike Bruce - Rhythm w/dist' 
Gtr V (E A D G B E) - 'Keyboard arr. for gtr' 
 
Intro 
  Q=132(8=s8) 
 4/4 
  Gtr I 
                                   ~~~~~~~~ 
                                             |--3---| 
   E  E  Q   E  E  Q     E  E  E   E   +Q    E   E  E 
|---------------------|-------------------------------| 
|-------14--------12--|-------14----------------------| 
|-------14--------12--|-------14--12--(12)------------| 
|-------14--------12--|-------14------------14p=13p12-| 
|-14-14-----14-14-----|-14-14-------------------------| 
|-12-12-----12-12-----|-12-12-------------------------| 
| 
| Gtr II 
|  E  E  Q   E  E  Q     E  E  E   E   +Q    Q 
|---------------------|-------------------------------| 
|---------------------|-------------------------------| 
|-------14--------12--|-------14----------------------| 
|-------14--------12--|-------14-(14)-(14)--14\-------| 
|-14-14-----14-14-----|-14-14-------------------------| 
|-12-12-----12-12-----|-12-12-------------------------| 
 
 
   E  E   Q    E   E   Q 
|--------------------------| 
|--------------------------| 
|--------14-----------12---| 
|--------14-----------12---| 
|-14-14-------14--14-------| 
|-12-12-------12--12-------| 
| 
|  E +E  +Q   +E  +E  +Q 
|--0-(0)-(0)--(0)-(0)-(0)--| 
|--0-(0)-(0)--(0)-(0)-(0)--| 
|--------------------------| 
|--2-(2)-(2)--(2)-(2)-(2)--| 
|--2-(2)-(2)--(2)-(2)-(2)--| 
|--0-(0)-(0)--(0)-(0)-(0)--| 
 
 
              ~~~~~~~ 
   E   E   E  E  +Q    S  S  S   S 
|-----------------------------------| 
|-----------------------------------| 
|---------14-12-(12)----------------| 
|---------14----------14p13p12------| 
|-14--14-----------------------(14)-| 
|-12--12----------------------------| 
| 
| +E  +Q.        +H 
|-(0)-(0)--------(0)----------------| 
|-(0)-(0)--------(0)----------------| 
|-----------------------------------| 
|-(2)-(2)--------(2)----------------| 
|-(2)-(2)--------(2)----------------| 
|-(0)-(0)--------(0)----------------| 
 
 
                                         ~~~~~~~ 
                                                  |--3--| 
   E  E   Q    E   E   Q      E   E   E  E  +Q    E  E  E 
|--------------------------|------------------------------| 
|--------------------------|------------------------------| 
|--------14-----------12---|---------14-12-(12)-----------| 
|--------14-----------12---|---------14----------14p13p12-| 
|-14-14-------14--14-------|-14--14-----------------------| 
|-12-12-------12--12-------|-12--12-----------------------| 
| 
|  E +E  +Q   +E  +E  +Q     +E  +Q.        +H 
|--3-(3)-(3)--(3)-(3)-(3)--|-(3)-(3)--------(3)-----------| 
|--3-(3)-(3)--(3)-(3)-(3)--|-(3)-(3)--------(3)-----------| 
|--1-(1)-(1)--(1)-(1)-(1)--|-(1)-(1)--------(1)-----------| 
|--2-(2)-(2)--(2)-(2)-(2)--|-(2)-(2)--------(2)-----------| 
|--2-(2)-(2)--(2)-(2)-(2)--|-(2)-(2)--------(2)-----------| 
|--0-(0)-(0)--(0)-(0)-(0)--|-(0)-(0)--------(0)-----------| 
 
 
   E  E   Q    E   E   Q 
|--------------------------| 
|--------14-----------12---| 
|--------14-----------12---| 
|--------14-----------12---| 
|-14-14-------14--14-------| 
|-12-12-------12--12-------| 
| 
|  E +E  +Q   +E  +E  +Q 
|--------------------------| 
|--3-(3)-(3)--(3)-(3)-(3)--| 
|--2-(2)-(2)--(2)-(2)-(2)--| 
|--2-(2)-(2)--(2)-(2)-(2)--| 
|--------------------------| 
|--------------------------| 
 
 
              ~~~~~~~ 
                       |--3---| 
   E   E   E  E  +Q    E   E  E    E  E  Q   E  E  Q 
|-------------------------------|---------------------| 
|---------14--------------------|---------------------| 
|---------14-12-(12)------------|-------14--------12--| 
|---------14----------14p=13p12-|-------14--------12--| 
|-14--14------------------------|-14-14-----14-14-----| 
|-12--12------------------------|-12-12-----12-12-----| 
| 
| +E  +Q.         Q    Q           E  E  Q   E  E  Q 
|-------------------------------|---------------------| 
|-(3)-(3)---------x/------------|--------2---------0--| 
|-(2)-(2)---------x/------------|--------2---------0--| 
|-(2)-(2)---------x/------------|---------------------| 
|-------------------------------|--x--x------x--x-----| 
|----------------------7\-------|--x--x------x--x-----| 
 
 
                                                             ~~~~~~~ 
   E  E  E  E  +Q    Q        E  E  Q   E  E  Q     E  E  E  E  +Q      Q 
|--------------------------|---------------------|--------------------------|| 
|-------14-----------------|---------------------|--------------------------|| 
|-------14-12-(12)---------|-------14--------12--|-------14-12-(12)---------|| 
|-------------------14\----|-------14--------12--|-------14------------14\--|| 
|-14-14--------------------|-14-14-----14-14-----|-14-14--------------------|| 
|-12-12--------------------|-12-12-----12-12-----|-12-12--------------------|| 
| 
|                    |-3-| 
|  E  E  E  E  +Q    E E E    E  E  Q   E  E  Q     E  E  E  E  +E  Q. 
|--------------------------|---------------------|--------------------------|| 
|--------2--0--(0)---------|--------2---------0--|--------2--0--(0)---------|| 
|--------2--0--(0)---------|--------2---------0--|--------2--0--(0)---------|| 
|------------------------0-|---------------------|--------------------------|| 
|--x--x--------------0h2---|--x--x------x--x-----|--x--x--------------------|| 
|--x--x--------------------|--x--x------x--x-----|--x--x------------7\------|| 
                           |-Rhy Fig 1                        end Rhy Fig 1-| 
 
   Verse 1 
w/Rhy Fig 1 x4 
                                    ~~~~~~~ 
     E  E  Q   E  E  Q     E  E  E  E  +H 
||----------------------|-----------------------| 
||o---------------------|-----------------------| 
||--------14--------12--|-------14-12-(12)------| 
||--------14--------12--|-------14--------------| 
||o-14-14-----14-14-----|-14-14-----------------| 
||--12-12-----12-12-----|-12-12-----------------| 
 |-Rhy Fig 1A                    end Rhy Fig 1A-| 
 
 
                                  ~~~~~~~ 
   E  E  Q   E  E  Q     E  E  E  E  +H 
|---------------------|-------------------------|| 
|---------------------|------------------------o|| 
|-------14--------12--|-------14-12-(12)--------|| 
|-------14--------12--|-------14----------------|| 
|-14-14-----14-14-----|-14-14------------------o|| 
|-12-12-----12-12-----|-12-12-------------------|| 
 
 
 
 Pre-Chorus 
  Gtr I 
  C                      D  Eb 
  q  q  q  q    q  q  q   E  E   q   q   q   q     q   q   q  q 
  |  |  |  |    |  |  |   |  |       |   |   |     |   |   |  | 
  /  /  /  /    /  /  /   /  /       /   /   /     /   /   /  / 
 
  Gtr II 
  q  q  q  q    q  q  q   E  E   Q   q   q   q     q   q   q  Q 
|-8--8--8--8--|-8--8--8--10-11-|-----9---9---9--|--9---9---9------|| 
|-8--8--8--8--|-8--8--8--10-11-|----11--11--11--|-11--11--11------|| 
|-9--9--9--9--|-9--9--9--11-12-|----12--12--12--|-12--12--12--0/--|| 
|-------------|----------------|----------------|-----------------|| 
|-------------|----------------|----------------|-----------------|| 
|-------------|----------------|----------------|-----------------|| 
 
 
 Chorus 
|-Rhy Fig 2A 
  G5            Bb5  C5         F5G5X  G5 
  W             H     Q.   +E   E E Q  Q  Q 
  |             |     |     |   | |    | 
  /             /     /     /   / /    / 
 
                                          |-3-| 
  Q  Q  Q  Q    H     Q.    E   E E Q  Q  E E E 
|-------------|---------------|-----------------| 
|-------------|---------------|--------3--x-x-x-| 
|-------------|---------------|--------3--x-x-x-| 
|-------------|-8----10-------|-3-5----5--x-x-x-| 
|-5--5--5--5--|-8----10-------|-3-5-------------| 
|-3--3--3--3--|-6-----8-------|-1-3-------------| 
|-Rhy Fig 2 
 
 
  F5I  G5 
  E     E  Q      Q       Q 
  |     |         | 
  /     /         / 
 
           |-3-|  |--3--| |-3-| 
  q        E E E  E   E E E E E 
|---------------------------------| 
|-x--------x-x-x--x-----x-x-x-x---| 
|-x--------x-x-x--x-----x-x-x-x---| 
|-x--------x-x-x--x-----x-x-x-x---| 
|---------------------------------| 
|---------------------------------| 
| 
|Gtr III 
| E    +Q.       +H 
|---------------------------------| 
|-3----(3)-------(3)--------------| 
|-5b7==(5)-------(5)r-------------| 
|---------------------------------| 
|---------------------------------| 
|---------------------------------| 
 
                                                           end Rhy Fig 2A-| 
  G5         Bb5  C5         F5G5X  G5              F5I G5 
  W          H     Q.   +E   E E Q  Q     Q          E  E Q     Q  Q 
  |          |     |     |   | |    |                |  |       | 
  /          /     /     /   / /    /                /  /       / 
 
                                          |--3--|         |-3-|    |-3-| 
  W          H     Q.    E   E E Q  Q     E E   E    q    E E E q  E E E 
|----------|---------------|--------3-------------|------------------------| 
|----------|---------------|--------3-----x-x---x-|--x----x-x-x-x--x-x-x---| 
|----------|---------------|--------3-----x-x---x-|--x----x-x-x-x--x-x-x---| 
|-5--------|-8----10-------|-3-5----5-----x-x---x-|--x----x-x-x-x--x-x-x---| 
|-5--------|-8----10-------|-3-5------------------|------------------------| 
|-3--------|-6-----8-------|-1-3------------------|------------------------| 
|                                                            end Rhy Fig 2-| 
|                                             ~~~~~~~~~~ 
| W          W               H      e   e E   E     +W 
|----------|---------------|----------------------|------------------------| 
|----------|---------------|----------------------|------------------------| 
|----------|---------------|--------5b7-5-----3---|-(3)--------------------| 
|----------|---------------|----------------------|------------------------| 
|----------|---------------|----------------------|------------------------| 
|----------|---------------|----------------------|------------------------| 
 
 
  G5         Bb5  C5         F5G5X        G5 
  W          H     Q.   +E   E E Q          Q     Q 
  |          |     |     |   | |            | 
  /          /     /     /   / /            / 
 
                                                  |--3--| 
  W          H     Q.    E   E E Q          Q     E  E  E 
|----------|---------------|----------------3-------------| 
|----------|---------------|----------------3-----x--x--x-| 
|----------|---------------|----------------3-----x--x--x-| 
|-5--------|-8----10-------|-3-5------------5-----x--x--x-| 
|-5--------|-8----10-------|-3-5--------------------------| 
|-3--------|-6-----8-------|-1-3--------------------------| 
|-Rhy Fig 2B 
| 
|                                                 |--3--| 
| W          W               Q   E  E      +Q     E  E  E 
|----------|---------------|-------15-----(15)---15-15-15-| 
|----------|---------------|-------18b20==(18)r-----------| 
|----------|---------------|------------------------------| 
|----------|---------------|------------------------------| 
|----------|---------------|------------------------------| 
|----------|---------------|------------------------------| 
 
 
  F5I   G5 
   E    E  Q           Q     Q 
   |    |              | 
   /    /              / 
 
           |---3----|        |-3-| 
   q       E     E  E  q     E E E 
|----------------------------------| 
|--x-------x-----x--x--x-----x-x-x-| 
|--x-------x-----x--x--x-----x-x-x-| 
|--x-------x-----x--x--x-----x-x-x-| 
|----------------------------------| 
|----------------------------------| 
|                   end Rhy Fig 2B-| 
|          |---3----| 
|  Q       E     E  E  H 
|-15------15----15-15-15-----------| 
|-18b20---18b20----18-18b20--------| 
|----------------------------------| 
|----------------------------------| 
|----------------------------------| 
|----------------------------------| 
 
 
  A                G/A                       F 
  Gtr V 
  W                  W                        W           +W 
  |                  |                        |            | 
  /                  /                        /            / 
 
  W                  W                        W           +W 
|----------------|-------------------------|--1--------|--(1)----|| 
|----------------|-------------------------|--1--------|--(1)----|| 
|-2--------------|---2---------------------|--2--------|--(2)----|| 
|-2--------------|---5---------------------|--3--------|--(3)----|| 
|-0--------------|---0---------------------|--3--------|--(3)----|| 
|----------------|-------------------------|--1--------|--(1)----|| 
| 
| H     H           +H       Q.       +E      W           +W 
|----------------|-------------------------|-----------|---------|| 
|------10--------|-(10)-----10-------(10)--|-10--------|-(10)----|| 
|------12b14=====|=(12)r----12b14====(12)r-|-----------|---------|| 
|----------------|-------------------------|-----------|---------|| 
|----------------|-------------------------|-----------|---------|| 
|----------------|-------------------------|-----------|---------|| 
 
 
 Bridge 
  Gtr V 
    H       H          H       H          H       H          H       H 
|------------------|------------------|------------------|-------------------| 
|---8-------7------|-----------7------|---8-------7------|-----------7-------| 
|---9-------7------|---9-------7------|---9-------7------|---9-------7-------| 
|------------------|--10--------------|------------------|--10---------------| 
|------------------|------------------|------------------|-------------------| 
|---8---8-8-8--8-8-|---8---8-8-8--8-8-|---8---8-8-8--8-8-|---8---8-8-8--8-8--| 
|   Q   E E Q  E E     Q   E E Q  E E     Q   E E Q  E E     Q   E E Q  E E 
|-Rhy Fig 3 
| 
| Gtr III 
|  +W                 +W                 +W                 +W 
|------------------|------------------|------------------|-------------------| 
|-(10)-------------|-(10)-------------|-(10)-------------|-(10)--------------| 
|------------------|------------------|------------------|-------------------| 
|------------------|------------------|------------------|-------------------| 
|------------------|------------------|------------------|-------------------| 
|------------------|------------------|------------------|-------------------| 
 
 
    H          H            H          H 
|-----------------------|-----------------------| 
|---8----------7--------|--------------7--------| 
|---9----------7--------|---9----------7--------| 
|-----------------------|--10-------------------| 
|-----------------------|-----------------------| 
|--10---10-10-10--10-10-|--10---10-10-10--10-10-| 
|   Q    E  E  Q   E  E     Q    E  E  Q   E  E 
| 
|  +W                      +W 
|-----------------------|-----------------------| 
|-(10)------------------|-(10)------------------| 
|-----------------------|-----------------------| 
|-----------------------|-----------------------| 
|-----------------------|-----------------------| 
|-----------------------|-----------------------| 
 
 
    H          H            H          H 
|-----------------------|------------------------|| 
|---8----------7--------|--------------7---------|| 
|---9----------7--------|---9----------7---------|| 
|-----------------------|--10--------------------|| 
|-----------------------|------------------------|| 
|--10---10-10-10--10-10-|--10---10-10-10--10-10--|| 
|   Q    E  E  Q   E  E     Q    E  E  Q   E  E 
|                                   end Rhy Fig 3-| 
| 
|  +W                      +W 
|-----------------------|------------------------|| 
|-(10)------------------|-(10)-------------------|| 
|-----------------------|------------------------|| 
|-----------------------|------------------------|| 
|-----------------------|------------------------|| 
|-----------------------|------------------------|| 
 
 
  Gtr III 
                                                        |--3--|  |--3--| 
   Q         Q     E     E  Q          Q      Q         E   E E  E  E  E 
|-12--------12----12----12-12------|--12-----12--------------------------| 
|-15b17====(15)r--15b17----15b17===|=(15)r---15b17-----15p=12------------| 
|----------------------------------|----------------------------14p12-14-| 
|----------------------------------|-------------------------------------| 
|----------------------------------|-------------------------------------| 
|----------------------------------|-------------------------------------| 
| 
| Gtr II 
|                                                                |--3--| 
|  E     E   Q     E     E  Q          E   E  E     E  +Q        E  E  E 
|----------------------------------|-------------------------------------| 
|------------2--------------0------|----------2-----0--(0)---------------| 
|------------2--------------0------|----------2-----0--(0)---------------| 
|----------------------------------|-----------------------------------0-| 
|--x-----x---------x-----x---------|---x---x---------------------0h=2----| 
|--x-----x---------x-----x---------|---x---x-----------------------------| 
| 
| Gtr I 
|                                                   ~~~~~~~ 
|  Q         q     Q        Q          Q      E     E  +H 
|----------------------------------|-------------------------------------| 
|-----------14---------------------|---------14--------------------------| 
|-----------14-------------12------|---------14----12-(12)---------------| 
|-----------14-------------12------|---------14----12-(12)---------------| 
|----------------------------------|-------------------------------------| 
|----------------------------------|-------------------------------------| 
|-Fill 1                                                      end Fill 1-| 
 
w/Fill 1 x3 
             ~~~~~~~~~~~~~~~~~~~~ 
   Q        +H.             +H.                Q 
|------------------------|----------------------------| 
|------------------------|----------------------------| 
|-14b16====(14)----------|-(14)r----------------------| 
|------------------------|----------------------------| 
|------------------------|----------------------------| 
|------------------------|----------------------------| 
| 
|                                              |-3-| 
|  E     E   Q   E E  Q      E   E  E  E  +Q   E E E 
|------------------------|----------------------------| 
|------------2--------0--|----------2--0--(0)---------| 
|------------2--------0--|----------2--0--(0)---------| 
|------------------------|-------------------------0--| 
|--x-----x-------x-x-----|---x---x-------------0h2----| 
|--x-----x-------x-x-----|---x---x--------------------| 
 
 
                                         |---3----|      |-3--| 
   a  E  E  a  E  E  a  E  E  a  E  E    Q  Q     Q      Q  Q Q 
|-10s12-12-10s12-12-10s12-12-10s12-12-|-12-11----10------9--8-7--| 
|-10s12-12-10s12-12-10s12-12-10s12-12-|-12-11----10------9--8-7--| 
|-------------------------------------|--------------------------| 
|-------------------------------------|--------------------------| 
|-------------------------------------|--------------------------| 
|-------------------------------------|--------------------------| 
| 
|                                        |---3----|      |-3--| 
|     E  E     Q        E  E     Q       Q  q     q      q  q q 
|-------------------------------------|--------------------------| 
|--------------2-----------------0----|--------------------------| 
|--------------2-----------------0----|--------------------------| 
|-------------------------------------|--------------------------| 
|-----x--x--------------x--x----------|--x--6-----5------4--3-2--| 
|-----x--x--------------x--x----------|--x-----------------------| 
 
 
            ~~~~~~~~~~~~~~~~~~~                           ~~ 
                                                |--3---| 
   a  E  E  H.             +Q     Q         a  +E   E  E  Q 
|-------12-12-----------|-(12)---15b17=====15r(15)p12----12---|| 
|-10s12-----------------|-----------------------------15------|| 
|-----------------------|-------------------------------------|| 
|-----------------------|-------------------------------------|| 
|-----------------------|-------------------------------------|| 
|-----------------------|-------------------------------------|| 
| 
|     E  E  Q   E E  Q      E  E  E      E     +Q         Q 
|-----------------------|-------------------------------------|| 
|-----------2--------0--|---------2------0-----(0)--------0---|| 
|-----------2--------0--|---------2------0-----(0)--------0---|| 
|-----------------------|-------------------------------------|| 
|-----x--x------x-x-----|---x--x------------------------------|| 
|-----x--x------x-x-----|---x--x------------------------------|| 
 
 
 Verse 2 
Rhy Fig 1 + 1A x3 
 
 
w/Rhy Fig 1A 
   E  E  Q   E  E  Q     E  E  E  E  +E  E Q 
|---------------------|------------------------|| 
|--------2---------0--|--------2--0--(0)-------|| 
|--------2---------0--|--------2--0--(0)-------|| 
|---------------------|------------------------|| 
|--x--x------x--x-----|--x--x------------2-2/--|| 
|--x--x------x--x-----|--x--x------------------|| 
 
 
 Chorus 
w/Rhy Fig 2 + 2A 
  Gtr III 
  W             W               Q   E  E      +q     q 
|-------------|---------------|-------------------------------| 
|-------------|---------------|-------13b15==(13)r--13b15-----| 
|-------------|---------------|-------------------------------| 
|-------------|---------------|-------------------------------| 
|-------------|---------------|-------------------------------| 
|-------------|---------------|-------------------------------| 
 
 
                            ~~~~~~~~~ 
   |-------3--------| 
   E      +E     S  S  E    E    +H 
|----------------------------------------------| 
|-13pb15r(13)p==11----11---11---(11)-----------| 
|------------------12--------------------------| 
|----------------------------------------------| 
|----------------------------------------------| 
|----------------------------------------------| 
 
 
  W          W               Q    E      E   E      E   E        E 
|----------|---------------|-----20b22==20r-20b22==20r-20b22====20r---| 
|----------|---------------|------------------------------------------| 
|----------|---------------|------------------------------------------| 
|----------|---------------|------------------------------------------| 
|----------|---------------|------------------------------------------| 
|----------|---------------|------------------------------------------| 
 
 
                              ~~~~ 
              |--3--| 
   E      E   E  E  E  E  E  +Q 
|-20b22==20r-20p18----18---------------| 
|------------------20----20-(20)-------| 
|--------------------------------------| 
|--------------------------------------| 
|--------------------------------------| 
|--------------------------------------| 
 
 
  Gtrs I, II 
  G5(type 3)       F(type 2)      CIII 
  W                  W             W           +W 
  |                  |             |            | 
  /                  /             /            / 
 
  Gtr III 
  H     H           +W            +W           +W 
|----------------|--------------|------------|--------|| 
|-------8--------|--(8)---------|-(8)--------|-(8)----|| 
|------10b12=====|=(10)r--------|------------|--------|| 
|----------------|--------------|------------|--------|| 
|----------------|--------------|------------|--------|| 
|----------------|--------------|------------|--------|| 
 
 
 Bridge 
w/Rhy Fig 3 
  Gtr III 
  +W                +W                +W                +H.         +E   E 
|-----------------|-----------------|-----------------|--------------------| 
|-(8)-------------|-(8)-------------|-(8)-------------|-(8)---------(8)\---| 
|-----------------|-----------------|-----------------|--------------------| 
|-----------------|-----------------|-----------------|--------------------| 
|-----------------|-----------------|-----------------|--------------------| 
|-----------------|-----------------|-----------------|--------------------| 
 
 
   Q  a       +H.                   +W 
|---------------------------------|----------------------| 
|--5--8pb8.5==(8)b9===============|=(8)------------------| 
|---------------------------------|----------------------| 
|---------------------------------|----------------------| 
|---------------------------------|----------------------| 
|---------------------------------|----------------------| 
 
 
  +W                     +W 
|----------------------|-----------------------|| 
|-(8)------------------|-(8)r------------------|| 
|----------------------|-----------------------|| 
|----------------------|-----------------------|| 
|----------------------|-----------------------|| 
|----------------------|-----------------------|| 
 
w/Rhy Fig 3 (first 6 bars) 
  Gtr IV 
   W                +W                 +W                 +W 
|-10-------------|-(10)-------------|-(10)-------------|-(10)-------------| 
|--8-------------|--(8)-------------|--(8)-------------|--(8)-------------| 
|-11-------------|-(11)-------------|-(11)-------------|-(11)-------------| 
|----------------|------------------|------------------|------------------| 
|----------------|------------------|------------------|------------------| 
|----------------|------------------|------------------|------------------| 
 
 
  Gtr III 
    Q       +H.                 +W 
|----------------------------|-----------------------| 
|--13b15===(13)--------------|-(13)------------------| 
|----------------------------|-----------------------| 
|----------------------------|-----------------------| 
|----------------------------|-----------------------| 
|----------------------------|-----------------------| 
| 
| Gtr IV 
|  +W                           +W 
|-(10)-----------------------|-(10)------------------| 
|--(8)-----------------------|--(8)------------------| 
|-(11)-----------------------|-(11)------------------| 
|----------------------------|-----------------------| 
|----------------------------|-----------------------| 
|----------------------------|-----------------------| 
 
 
                        Gtr I 
    H          H            W 
|-----------------------|----------|| 
|---8----------7--------|----------|| 
|---9----------7--------|----------|| 
|-----------------------|---x\-----|| 
|-----------------------|---x\-----|| 
|--10---10-10-10--10-10-|---x\-----|| 
|   Q    E  E  Q   E  E 
| 
|  +W                      +W 
|-----------------------|----------|| 
|-(13)------------------|-(13)r----|| 
|-----------------------|----------|| 
|-----------------------|----------|| 
|-----------------------|----------|| 
|-----------------------|----------|| 
| 
|  +W                      +W 
|-(10)------------------|-(10)-----|| 
|--(8)------------------|--(8)-----|| 
|-(11)------------------|-(11)-----|| 
|-----------------------|----------|| 
|-----------------------|----------|| 
|-----------------------|----------|| 
 
 
 Chorus 
w/Rhy Fig 2A + 2B 
  Gtr III 
  W          W               Q   E  E      +E    E  E       E 
|----------|---------------|--------------------15---------15---| 
|----------|---------------|-------15-----(15)-----15-----------| 
|----------|---------------|-------17b19==(17)r----17b19--------| 
|----------|---------------|------------------------------------| 
|----------|---------------|------------------------------------| 
|----------|---------------|------------------------------------| 
 
 
   E     E  E       E    E     E  Q 
|-------15---------15---------15-------------| 
|-15-------15-----------15-------15\---------| 
|-17b19----17b19--------17b19----17b19\------| 
|--------------------------------------------| 
|--------------------------------------------| 
|--------------------------------------------| 
 
 
                                                |--3--| 
  W          W               Q    Q      Q      E  E  E 
|----------|---------------|----------------------------| 
|----------|---------------|----------------------------| 
|----------|---------------|-----12b14--12b14--12-10----| 
|----------|---------------|-------------------------12-| 
|----------|---------------|----------------------------| 
|----------|---------------|----------------------------| 
 
 
 
             ~~~~~~~~~ 
   E  Q      E    +H 
|------------------------------| 
|------------------------------| 
|-10-12-----12---(12)----------| 
|------------------------------| 
|------------------------------| 
|------------------------------| 
 
 
 
w/Rhy Fig 1A (first 4 bars) + Rhy Fig 1B 
                                  ~~~~~~~~~~~~~~~~~~~~ 
  W          W               Q    Q      H 
|----------|---------------|-----20b22--20b22--------| 
|----------|---------------|-------------------------| 
|----------|---------------|-------------------------| 
|----------|---------------|-------------------------| 
|----------|---------------|-------------------------| 
|----------|---------------|-------------------------| 
 
 
 ~~~~~~~                        ~~~ 
                   |--3---| 
   Q       a      +E   E  E  E  Q. 
|-20b22---20pb21r(20)-18----18-------------| 
|------------------------20----20----------| 
|------------------------------------------| 
|------------------------------------------| 
|------------------------------------------| 
|------------------------------------------| 
 
 
  Gtr II 
  Gm               FVIII                  CIII 
  W                  H       Q      +Q      W                +W 
  |                  |       |       |      |                 | 
  /                  /       /       /      /                 / 
 
  Gtr III 
  H     H           +H       H             +H.       +Q      +W 
|----------------|----------------------|-----------------|----------*| 
|----------------|----------------------|-----------------|----------*| 
|------10b12=====|=(10)r----10b12=======|=(10)------(10)--|-(10)r----*| 
|----------------|----------------------|-----------------|----------*| 
|----------------|----------------------|-----------------|----------*| 
|----------------|----------------------|-----------------|----------*| 
 
 
********* 
You found it at E-Chords 
Submitted By: David Campbell 
Ontario Canada  
 

	  

Search Paypal
auto scroll beats size up size down change color hide chords drawings
tab show chords e-chords YouTube Clip e-chords hide all tabs e-chords go to top tab