Fun

Carry On

Fun

tabs Beginner beginner

by  JOAOEWERTON

save to print version add songbook text version e-mail correct tuner
chordsukulelecavacokeyboardtabbassdrumsharmonicaflute Guitar Pro
close

there isn't a video lesson for this song

chords

Carry On

Year: 2013 -

(Nate Ruess, Andrew Dost, Jack Antonoff & Jeff Bhasker)

	  		 

e|------------------------------------------------------------------------| 
B|----------------------------------18tp~------------18~---------------20~| 
G|-------------------------15-17-19--------17h19p17---------17h19p17------| 
D|----------------15-17-19------------------------------------------------| 
A|----///15-17-19---------------------------------------------------------| 
E|------------------------------------------------------------------------| 



e|--------------------------------------------------20-20-20-18-17--------| 
B|-------------20bgrad22-b22-b22-b22-b22-b22r20-18~----------------20-18~-| 
G|---17h19p17-------------------------------------------------------------| 
D|------------------------------------------------------------------------| 
A|------------------------------------------------------------------------| 
E|------------------------------------------------------------------------| 


e|---20-20-20-18-17-22-20~------------------------------------------------| 
B|------------------------------------------------------------------------| 
G|------------------------------------------------///22tp~----------------| 
D|-----------------------------14/15-15----15-----------------------------| 
A|--------------------------------------15-----15-------------------------| 
E|------------------------------------------------------------------------| 

 
		  

See also:

tabs Eva Cassidy - Ain't No Sunshine tabs Jason Mraz - 93 Million Miles tabs Michael Jackson - BEN tabs Stevie Wonder - Sir Duke tabs Jason Mraz - I'm Yours (acoustic) tabs My Chemical Romance - Thank You For The Venom
e-chords

Other versions:

tabs Motor Ace - Carry On tabs Pat Green - Carry On tabs The Cranberries - Carry On tabs Avenged Sevenfold - Carry On tabs Fun - Carry On tabs Anna Tsuchiya - Carry On
auto scroll beats size up size down change color hide chords drawings
tab show chords e-chords YouTube Clip e-chords hide all tabs e-chords go to top tab

share