Yngwie Malmsteen

home > Yngwie Malmsteen

Dreaming (tell me) Tab

Yngwie Malmsteen

Difficulty: BeginnerBeginner

tuner correct add songbook print version text version save to e-mail
chordsukulelecavacokeyboardtabbassdrumsharmonicsflute Guitar Pro
chords

Dreaming (tell me)

  		 
|-------------------10-12----10------------------------------------10-13p10- 
|----------------10-------13----10-8-10-8----8------------------10---------- 
|-----------9-10--------------------------10---10h12p10-9----10------------- 
|------<12>-----------------------------------------------12---------------- 
|-<12>---------------------------------------------------------------------- 
|--------------------------------------------------------------------------- 
 
 
------------|-------------|--------------------------|---------------------- 
-10---------|-------------|--------------------------|---------------10h11p10 
----10p9----|-------------|-------7-9-10-s12-12-10-9-|-10-10-10-9----------- 
---------12-|-7-----------|-----7--------------------|------------12-------- 
------------|---8-7-8-----|-7h8----------------------|---------------------- 
------------|---------10--|--------------------------|---------------------- 
 
 
--------|----------------10--|-s12-------------------|---------------------| 
--------|-------10-11-13-----|-----13-10----10-10-11-|-13-11-10------------| 
-12-10--|-10-12--------------|-----------12----------|---------------------| 
--------|--------------------|-----------------------|---------------------| 
--------|--------------------|-----------------------|---------------------| 
--------|--------------------|-----------------------|---------------------| 
 
 
|-5-6-8p6p5-----5----------------------------|------------5-6-8h10-8-6-5---| 
|-----------8-8---8-6-5-8p6-5-8-6p5-5-5------|----5-5-6-8----------------8-| 
|---------------------------------------6-7--|-7---------------------------| 
|--------------------------------------------|-----------------------------| 
|--------------------------------------------|-----------------------------| 
|--------------------------------------------|-----------------------------| 
 
 
      
        Shades of night fall upon my eyes... 
|------------------|---------------------|----------------|----------------| 
|-6-5--------------|---------------------|----------------|----------------| 
|-----7-9-9--------|---------------------|----------------|----------------| 
|------------------|---------------------|----------------|----------------| 
|------------------|---------------------|----------------|----------------| 
|------------------|---------------------|----------------|----------------| 
 
rhythm fig 1 
 
|--------0-1-0------|-------0---|-------0-1-0-------|-----0----------0-----| 
|------3-------3----|-----3-----|-----3-------3-----|-------3-----------3--| 
|----2-----------2--|---3-------|---2---------------|---0---------0--------| 
|--0----------------|-0---------|-0-----------------|----------------------| 
|-------------------|-----------|----------------3--|-1--------3-----------| 
|-------------------|-----------|-------------------|----------------------| 
 
Lonely world fades away 
Misty light shadows start to rise 
Lonely world fades away 
 
 
       
          In my dreams  your face is all I see 
|-------------------|--------6-5-3-----|-----------------------------------| 
|-------3-2---------|--------------6-5-|--3-2-3----3-2-3----3-2-3----3-2-3-| 
|-----2-----2-------|-----2------------|---------------------------0-------| 
|---2---------------|---2--------------|0--------2--------3----------------| 
|-0------------0--2-|-4----------------|-----------------------------------| 
|-------------------|------------------|-----------------------------------| 
 
 
fig 2 
  through the night   you share your love with me 
|-----------------|--------6-5-3------|-----------5-9---|------------------| 
|-------3-2-------|--------------6-5--|-3-6-5-3-------8-|---3-2------------| 
|-----2-----2-----|-----2-------------|---------6-------|-------3-2-0------| 
|---2-------------|---2---------------|-----------------|-0-----------3-2--| 
|-0-----------0-2-|-4-----------------|-----------------|------------------| 
|-----------------|-------------------|-----------------|------------------| 
 
  Dreaming  visions of you 
|-------3---------|-------3---------|-------3----------|-------------------| 
|-----3-----3-----|-----3-----3-----|-----3-----3------|-------3-2---------| 
|---3-----3---3---|---3-----3---3---|---3-----3---3----|-----2-----2-------| 
|-5-------------5-|-3-------------3-|-2-------------2--|---2---------2-----| 
|-----------------|-----------------|------------------|-0-----------------| 
|-----------------|-----------------|------------------|-------------------| 
 
 
 
  Feelin    all the love I never knew 
|-------3---------|-------3---------|-------3---------|--------|-----------| 
|-----3-----3-----|-----3-----3-----|-----3-----3-----|-3------|-2---------| 
|---3-----3---3---|---3-----3---3---|---3-----3---3---|-2------|-2---------| 
|-5-------------5-|-3-------------3-|-2---------------|-2------|-2---------| 
|-----------------|-----------------|-----------------|-0------|-0---------| 
|-----------------|-----------------|-----------------|--------|-----------| 
 
fig1 
Here we are on a crossroads of forever 
shining star lights the way 
fig2 
walk with me on the winds of time 
 
 
 
  love's mystery   is for us to find 
 
|------------------|----------|---5-------6-5---|--3---------3-------------- 
|-------3-2--------|----------|-3---5-3-------8-|6---5--6--3---------------- 
|-2---2-----2------|----------|---------6-------|7---6-----7-6-------------- 
|---2--------------|----------|-----------------|-------8------------------- 
|-------------0--2-|----------|-----------------|--------------------------- 
|------------------|----------|-----------------|--------------------------- 
 
 
fig 1 
Dreaming visions of you 
 
 
 feelin      all the love  I never knew 
|------------|------------|-------------3-------5--3--|---------|-----6----| 
|------------|------------|-----3-----3------3--------|---------|----------| 
|------------|------------|---3-----3------3----------|---------|----------| 
|------------|------------|-2-----2-------------------|---------|----------| 
|------------|------------|---------------------------|---------|----------| 
|------------|------------|---------------------------|---------|----------| 
 
 
 
    Oh                                            go on dreaming 
                                                             trem picking 
|-5------|-----------------6-8-|10-8-6--------------5---|----5--6--8-------| 
|----5-6-|-8-6-5----6-8-10-----|-------10-8-6-5-8-6---8-|-8----------------| 
|--------|-------7-------------|------------------------|------------------| 
|--------|---------------------|------------------------|------------------| 
|--------|---------------------|------------------------|------------------| 
|--------|---------------------|------------------------|------------------| 
 
 
|-10-10-12-13-12-10-|-12-15-12~----|9h10-6p5-------------------------------- 
|-------------------|-----------15-|---------8-6p5-------------------------- 
|-------------------|--------------|---------------7-6---------------------- 
|-------------------|--------------|-------------------8p7-----------5-7-8-- 
|-------------------|--------------|-----------------------8p7-5h7-8-------- 
|-------------------|--------------|---------------------------------------- 
 
 
-------|-------------5-6---|--------|--------------------------------------- 
-----5-|---6----8----------|--------|-t16-15-t16-13-t16-11-t16-10-t16-8-t16- 
-5-7---|-----------------7-|--12bf~-|--------------------------------------- 
-------|-7----7----7-------|--------|--------------------------------------- 
-------|-------------------|--------|--------------------------------------- 
-------|-------------------|--------|--------------------------------------- 
 
           1/2 
----------|-----------------|-------10s13----------------13-16p13----------| 
7-t16-8-10|10b----10p8------|----12-------15----------15----------15-------| 
----------|-----------------|-13-------------16-13h16----------------16----| 
----------|-----------------|----------------------------------------------| 
----------|-----------------|----------------------------------------------| 
----------|-----------------|----------------------------------------------| 
 
     1/2 
|----17b--rb17p15--17~--|-18p17p15-17p15p13----15p13p12----13-12-------12--- 
|-----------------------|-------------------17----------15-------15-16------ 
|-0---------------------|--------------------------------------------------- 
|-----------------------|--------------------------------------------------- 
|-----------------------|--------------------------------------------------- 
|-----------------------|--------------------------------------------------- 
 
 
---------------|------------------------------------------------------------ 
15-14----15----|------------------------------------------------------------ 
------15----12-|-14h15p14-12----14-12-------12------------------------------ 
---------------|-------------15-------15-14----15-14-12-14-15p14-12-11s12--- 
---------------|------------------------------------------------------------ 
---------------|------------------------------------------------------------ 
 
 
--------------|---------------------9s10-| 
--------------|-------------------7------| 
--------------|-----------------7--------| 
-14h15p14-12--|-16~----14s0--s9----------| 
--------------|--------------------------| 
--------------|--------------------------| 
 
 
        Until that day                      until that day I find you 
 
|-7------------------|--------------------|-------7----------|------7-------| 
|--------------------|--------------------|-----7------7-----|----7-----7---| 
|---7p6--------------|--------------------|---7------7---7---|--7-----7---7-| 
|-------9------------|--------------------|-7--------------7-|6------------6| 
|--------------------|--------------------|------------------|--------------| 
|--------------------|--------------------|------------------|--------------| 
|                    |                    |                  |              | 
|                    |                    |                  |              | 
|-------7------------|-------7------------|------------------|--------------| 
|-----7------7-------|-----7------7-------|------------------|--------------| 
|---7------7---7-----|---7------7---7-----|------------------|--------------| 
|-7--------------7---|-8--------------8---|------------------|--------------| 
|--------------------|--------------------|------------------|--------------| 
|--------------------|--------------------|------------------|--------------| 
 
 
            I won't rest                       I won't let go 
 
|-------7--------7--|-------7--------7--|-------4-7-------|-------2--------| 
|-----7--------7----|-----7--------7----|-----3-----6-----|-----2---2-----2| 
|---7--------7------|---7--------7------|---4---------7---|---4-------3----| 
|-5--------5--------|-4--------4--------|-3-------------6-|-4-----------4--| 
|-------------------|-------------------|-----------------|----------------| 
|-------------------|-------------------|-----------------|----------------| 
 
 
        Some how some way             I know I'm there beside you 
  
|-------9-10-9-7-|-------7----------|-------7---------|-------7------------| 
|-----7----------|-----7-----7------|-----7-----7-----|-----7-----7--------| 
|---7------------|---7-----7---7----|---7-----7---7---|---7-----7---7------| 
|-7--------------|-8--------------8-|-7-------------7-|-6--------------6---| 
|----------------|------------------|-----------------|--------------------| 
|----------------|------------------|-----------------|--------------------| 
 
 
         To warm my heart                  and fill my soul. 
 
|-------7--------7--|-------7--------7--|-------4--------7-|-------2-------| 
|-----7--------7----|-----7--------7----|-----3--------6---|-----2-----2---| 
|---7--------7------|---7--------7------|---4--------7-----|---4-----4---4-| 
|-5--------5--------|-4--------4--------|-3--------6-------|-4-------------| 
|-------------------|-------------------|------------------|---------------| 
|-------------------|-------------------|------------------|---------------| 
 
 
Solo 
 
|-2-------------|----------|-------12---------------12---------------------- 
|-2-------------|-15bf-----|-15bf-----15-12------12----15p12---------------- 
|-3----3--4--3--|----------|----------------14bf-------------15-14p12------- 
|-4-------------|----------|------------------------------------------14---- 
|---------------|----------|------------------------------------------------ 
|---------------|----------|------------------------------------------------ 
 
 
--------------|------------------|------------------------|-------------12-| 
--------------|------------------|------------------------|----------12----| 
-14p12--------|------------------|---------------------12-|-12b---12-------| 
-------14-12--|-14--14p12--16p12s|10--10h12p10-9-10-12----|----------------| 
--------------|------------------|------------------------|----------------| 
--------------|------------------|------------------------|----------------| 
 
  1/2 
|-14b--14~--12--15-12-14-15-17-14-|-15-12s19-15-17-19-20-17-19-20-20-22bf~-| 
|---------------------------------|----------------------------------------| 
|---------------------------------|----------------------------------------| 
|---------------------------------|----------------------------------------| 
|---------------------------------|----------------------------------------| 
|---------------------------------|----------------------------------------| 
 
 
|s19h20p19p17-19-17----17--19h20p19p17----7h8p7p5------|---8h12-7t12-5t12--- 
|-------------------20-----------------19---------7p5--|-5----------------8- 
|------------------------------------------------------|-------------------- 
|------------------------------------------------------|-------------------- 
|------------------------------------------------------|-------------------- 
|------------------------------------------------------|-------------------- 
 
 
-----------|---------------------------------------------------------------| 
-7h8p7-----|-------10-13-12-10-13-12-10----12-10-------10------------------| 
-------9~--|-11-12----------------------12-------12-11----12-11-12-11-9----| 
-----------|---------------------------------------------------------------| 
-----------|---------------------------------------------------------------| 
-----------|---------------------------------------------------------------| 
 
 
|-----------------------10----12----14p12-15p14-|-15p14--------------15----| 
|-----------10h12-13p12----12----14-------------|-------15--13-13-12-------| 
|-8s9h11s12-------------------------------------|--------------------------| 
|-----------------------------------------------|--------------------------| 
|-----------------------------------------------|--------------------------| 
|-----------------------------------------------|--------------------------| 
 
 
|-----------------12-------------------|------------------------------------ 
|-12-----------------15-12-------------|--------------------------------17-- 
|-----14bf--rb14-----------15-14-12----|-14-12-----------------16-17-19----- 
|-----------------------------------14-|--------14~--s16-17-19-------------- 
|--------------------------------------|------------------------------------ 
|--------------------------------------|------------------------------------ 
 
 
-------17-19----|-14h15p14-------14----------12----------------------------| 
-19-20-------20-|----------17-15----17p15s13----15-13s12-15p13p12----------| 
----------------|-------------------------------------------------14---14~-| 
----------------|----------------------------------------------------------| 
----------------|----------------------------------------------------------| 
----------------|----------------------------------------------------------| 
 
 
|-----14------------14------10-----|------------------------------|--------- 
|----------------------------------|----5p4p3-------------------3-|--------- 
|-11------11s9--11s-----s7------7s-|-4--------4p2-4p2-------2h4---|-4p2p0--- 
|----------------------------------|------------------4p2h4-------|--------- 
|----------------------------------|------------------------------|--------- 
|----------------------------------|------------------------------|--------- 
 
                                               1/2 
-------------------|----------------|----15--------------------------------| 
-------------------|-15bf--rb15~----|-13----13p12b-------------------------| 
-------------------|----------------|---------------14-12-16-16-16p14p12---| 
-4p2p0-------------|----------------|--------------------------------------| 
-------3p2p0-------|----------------|--------------------------------------| 
-------------3p2p0-|----------------|--------------------------------------| 
 
 
|--------------------------------------------------------------------------| 
|--------------------------------------------------------------------------| 
|-14-12-------12-----------------------------------------------------------| 
|-------16p14----16-14p12-16-14-12----14p12-------12----------------12-14--| 
|----------------------------------15-------15-14----15-14-12-14h15--------| 
|--------------------------------------------------------------------------| 
 
                                                    1/2 
|-----------------------------19-20-|-22bf-rb22~--|-19b~--19-17-|19-17~-----| 
|--------------------19h20-22-------|-------------|-------------|------20p19| 
|--------------19-21----------------|-------------|-------------|-----------| 
|-14--19-21-22----------------------|-------------|-------------|-----------| 
|-----------------------------------|-------------|-------------|-----------| 
|-----------------------------------|-------------|-------------|-----------| 
 
 
|-----------------------19h20p19-------7h8p7------------------------------7-| 
|h20--22p20p19----19h20----------22p19-------10p8p7-----------------8---10--| 
|--------------21-----------------------------------9p8------8h9h11---------| 
|-------------------------------------------------------10p9----------------| 
|---------------------------------------------------------------------------| 
|---------------------------------------------------------------------------| 
 
 
|-8p7p5-----------------------------------|--------------------------------| 
|-------8p7p5-----------------------------|--------------------------------| 
|-------------7p5p4-----------------------|--------------------------------| 
|-------------------7p5p4-----------------|--------------------------------| 
|-------------------------7p5p3p2---------|--------------------------------| 
|---------------------------------5p3p2p0-|----(0)~------------------------| 
 
 
|------------------|---------8-|7------7----------|------------------------| 
|------------------|-----------|--10-8---8-7------|------------------------| 
|------------------|-----------|-------------9----|------------------------| 
|------------------|-----------|------------------|---------4-5-7-5-4------| 
|------------------|-----------|------------------|------------------------| 
|------------------|-----------|------------------|------------------------| 
|                  |           |                  |                        | 
|                  |           |                  |                        | 
|-------2-3-2------|-------2---|-------2-3-2------|------2-----------2-----| 
|-----5-------5----|-----5-----|-----5-------5----|---------5-----------5--| 
|---4-----------4--|---5-------|---4--------------|----2----------2--------| 
|-2----------------|-2---------|-2----------------|------------------------| 
|------------------|-----------|---------------5--|--3----------5----------| 
|------------------|-----------|------------------|------------------------| 
                     
     
 
   Dreamin'                                               only 
||-----------------|----------------|---------------|---------<12>---------| 
||-----------------|----------------|---------------|----------------------| 
||-----------------|----------------|---------------|----------------------| 
||-----------------|----------------|---------------|----------------------| 
||-7---------------|----------------|---------------|----------------------| 
||-----------------|----------------|---------------|----------------<7>---| 
 
 
  Dreamin' 
|---------<12>--------|------------------------10-12--------------|--------|| 
|----<12>-------------|---------------10-12-13--------12-10-------|--------|| 
|-0--------------<7>--|-(7)--9--11-12-----------------------12-11-|--9-----|| 
|---------------------|-------------------------------------------|--------|| 
|---------------------|-------------------------------------------|--------|| 
|---------------------|-------------------------------------------|--------|| 
 
 
Repeat last 2 bbars and fade 
 
 
_______________________________________________________ 
Contribuição: Eduardo([email protected]) 

	  

Search Paypal
auto scroll beats size up size down change color hide chords drawings
tab show chords e-chords YouTube Clip e-chords hide all tabs e-chords go to top tab