Mac Demarco

home > Mac Demarco

Dreaming Tab

Mac Demarco

Difficulty: nolevelnolevel

by joaoewerton

tuner correct add songbook print version text version save to e-mail
chordsukulelecavacokeyboardtabbassdrumsharmonicsflute Guitar Pro
chords

Dreaming

  		

Intro: 
Guitar 1: 
e|----5----------------------------| 
B|-8------5--8----5------5---------| 
G|-------------------7---------5---| x2 
D|--------------------------7------| 
A|---------------------------------| 
E|---------------------------------| 


Hit this chord just before the verse: 
Guitar 1: 
e|-----| 
B|-----| 
G|-----| 
D|-7---| 
A|-0---| 
E|-----| 

Verse 1: 
"Some day I'll find her, 
And I'm still reminded, 
Maybe she's best in dreams, 
She's still the best I've seen" 
Guitar 1: 
e|---------------------------8.-| 
B|---8---------5~---------------| 
G|-7---5/7--7------7------------| x4 
D|----------------------7--7----| 
A|-------------------5--0--0----| 
E|------------------------------| 

Guitar 2: 
e|----------------------------5---------------------------------| 
B|-----5----5-6--5-5-6-5--5/8---6-----5----5-6--5-5-6-5---------| 
G|-5/7---7--------------------------7---7----------------4-5-4--| 
D|--------------------------------------------------------------| 
A|--------------------------------------------------------------| 
E|--------------------------------------------------------------| 

e|----------------------------5--------------------------------| 
B|-----5----5-6--5-5-6-5--5/8---6-----5----5-6--5-5-6-5--------| 
G|-5/7---7--------------------------7---7----------------4--5--| 
D|-------------------------------------------------------------| 
A|-------------------------------------------------------------| 
E|-------------------------------------------------------------| 


Chorus: 
"Dreaming, 
Dreaming, 
Dreaming, 
Maybe I'm dreaming" 
Guitar 1: 
e|-7---7------------| 
B|-8---8------------| 
G|-7---7--7-----12--| x4 
D|-9---9--7-----12--| 
A|-7---7--5-----10--| 
E|------------------| 

Guitar 2: 
e|-----------------------------------| 
B|----------3------------------------| 
G|-4--5--4-----4--5--4--5--4--2---0--| x4 
D|-----------------------------------| 
A|-----------------------------------| 
E|-----------------------------------| 


Intro part again: 
Guitar 1: 
e|----5----------------------------| 
B|-8------5--8----5------5---------| 
G|-------------------7---------5---| x2 
D|--------------------------7------| 
A|---------------------------------| 
E|---------------------------------| 


Hit this chord just before the verse: 
Guitar 1: 
e|-----| 
B|-----| 
G|-----| 
D|-7---| 
A|-0---| 
E|-----| 

Verse 1: 
"Out on a windowsill, 
Baby, remember, 
Maybe I'm out of luck, 
Maybe it's running still" 
Guitar 1: 
e|---------------------------8.-| 
B|---8---------5~---------------| 
G|-7---5/7--7------7------------| x4 
D|----------------------7--7----| 
A|-------------------5--0--0----| 
E|------------------------------| 

Guitar 2: 
e|----------------------------5---------------------------------| 
B|-----5----5-6--5-5-6-5--5/8---6-----5----5-6--5-5-6-5---------| 
G|-5/7---7--------------------------7---7----------------4-5-4--| 
D|--------------------------------------------------------------| 
A|--------------------------------------------------------------| 
E|--------------------------------------------------------------| 

e|----------------------------5--------------------------------| 
B|-----5----5-6--5-5-6-5--5/8---6-----5----5-6--5-5-6-5--------| 
G|-5/7---7--------------------------7---7----------------4--5--| 
D|-------------------------------------------------------------| 
A|-------------------------------------------------------------| 
E|-------------------------------------------------------------| 


Chorus: 
"Dreaming, 
Dreaming, 
Dreaming, 
Maybe I'm dreaming" 
Guitar 1: 
e|-7---7------------| 
B|-8---8------------| 
G|-7---7--7-----12--| x4 
D|-9---9--7-----12--| 
A|-7---7--5-----10--| 
E|------------------| 

Guitar 2: 
e|-----------------------------------| 
B|----------3------------------------| 
G|-4--5--4-----4--5--4--5--4--2---0--| x4 
D|-----------------------------------| 
A|-----------------------------------| 
E|-----------------------------------| 


Outro: 
Guitar 1: 
e|----5----------------------------| 
B|-8------5--8----5------5---------| 
G|-------------------7---------5---| x4 
D|--------------------------7------| 
A|---------------------------------| 
E|---------------------------------| 
 
	  

Search Paypal
auto scroll beats size up size down change color hide chords drawings
tab show chords e-chords YouTube Clip e-chords hide all tabs e-chords go to top tab