Against The Current

home > Against The Curren...

Dreaming Alone Tab

Against The Current

Difficulty: nolevelnolevel

by ubirbomfim

tuner correct add songbook print version text version save to e-mail
chordsukulelecavacokeyboardtabbassdrumsharmonicsflute Guitar Pro
chords

Dreaming Alone

  		

Intro 
e|--0--0--0--0------1--1--1--1-----------------------------------------------| 
B|--1---------------3---------------1-1-1-1----------------------------------| 
G|------------------2---------------2----------------------------------------| 
D|------------------0---------------2----------------------------------------| 
A|----------------------------------0----------------------------------------| 
E|----------------------------------0----------------------------------------| 

Verse (0:12) 
e|-----------0--------------0------------------------------------------------| 
B|--1--1--3--1--------1--3--3--3--1--3---------------------------------------| 
G|--2--------0--0--0--------2-----------2------------------------------------| 
D|--2--------2--------------0-----------2------------------------------------| 
A|-----------3--------------------------0------------------------------------| 
E|--------------------------------------0------------------------------------| 

e|-----------0--------------0------------------------------------------------| 
B|--1--1--3--1--------1--3--3--3--1--3---------------------------------------| 
G|-----------0-----0--------2-----------2------------------------------------| 
D|-----------2--------------0-----------2------------------------------------| 
A|-----------3--------------------------0------------------------------------| 
E|--------------------------------------0------------------------------------| 

e|--------3--0--0-----------0-----------0------------------------------------| 
B|--1--1--------1--1--1--3-----3--1--3--1------------------------------------| 
G|--------------0--------2--------------2------------------------------------| 
D|--------------2--------0--------------2------------------------------------| 
A|--------------3--------0---------------------------------------------------| 
E|---------------------------------------------------------------------------| 

e|-----------0--------------0------------------------------------------------| 
B|--1--1--3--1--------1--3--3--3--1--3---------------------------------------| 
G|-----------0--0--0--------2-----------2------------------------------------| 
D|-----------2--------------0-----------2------------------------------------| 
A|-----------3--------------------------0------------------------------------| 
E|--------------------------------------0------------------------------------| 

PreChorus and Chorus (0:40) 
e|--------3-----0-----3-----------0-----------0-----------0------------------| 
B|--1-----------1-----------3--3--------3--3-----3--3--3-----3-----1---------| 
G|--2-----------2-----------0--------------------0--------------------2------| 
D|--3-----------2-----------2--------------------0---------------------------| 
A|--------------------------3--------------------2---------------------------| 
E|-----------------------------------------------3---------------------------| 

e|--------3-----0-----3-----------0-----------0-----------0------------------| 
B|--1-----------1-----------3--3--------3--3-----3--3--3-----3-----1--1------| 
G|--2-----------2-----------0--------------------0---------------------------| 
D|--3-----------2-----------2--------------------0---------------------------| 
A|--------------------------3--------------------2---------------------------| 
E|-----------------------------------------------3---------------------------| 

e|--8--7--5--3--0--0-----0--3--------8--7--5--3--0--0-----0--3---------------| 
B|--8--------------1--3-----------1--8-----------0-----3---------------------| 
G|--9--------------2-----------------9-----------0---------------------------| 
D|-----------------2-----------------------------0---------------------------| 
A|-----------------------------------------------2---------------------------| 
E|-----------------------------------------------3---------------------------| 

e|--------3-----0-----3-----------0-----------0-----------0------------------| 
B|--1-----------1-----------3--3--------3--3-----3--3--3-----3--1-----1------| 
G|--2-----------2-----------0--------------------0-----------------2---------| 
D|--3-----------2-----------2--------------------0---------------------------| 
A|--------------------------3--------------------2---------------------------| 
E|-----------------------------------------------3---------------------------| 

Repeat Verse (1:06) 

Repeat PreChorus and Chorus (1:34) 

Bridge (2:01) 
e|--------3--3--0--0-----0-----------3--5--0--------0-----0-----------------3| 
B|--1--1--------------3--------1--1-----------3--1-----3-----3--1-----0--1---| 
G|-----------------------------------------------------------------2---------| 
D|---------------------------------------------------------------------------| 
A|---------------------------------------------------------------------------| 
E|---------------------------------------------------------------------------| 

Repeat PreChorus and Chorus (2:14) 

Outro (2:40) 
e|-----3--0--------5--0--------------3--0------------------------------------| 
B|--1-----------1--------3--1-----1------------------------------------------| 
G|--0-----------2--------2--------2------------------------------------------| 
D|--2--------------------0--------2------------------------------------------| 
A|--3------------------------------------------------------------------------| 
E|---------------------------------------------------------------------------| 

e|--------------0-----------0-----------------0------------------------------| 
B|--1--1--3--3--------3--3--------1--3--3--3-----3--1-----1------------------| 
G|--------0--------------------------0-----------------2---------------------| 
D|--------2--------------------------0---------------------------------------| 
A|--------3--------------------------2---------------------------------------| 
E|-----------------------------------3---------------------------------------|  
	  

Search Paypal
auto scroll beats size up size down change color hide chords drawings
tab show chords e-chords YouTube Clip e-chords hide all tabs e-chords go to top tab