Wolfmother

Dimension

Wolfmother

tabs Intermediate intermediate

save to print version add songbook text version e-mail correct tuner
chordsukulelecavacokeyboardtabbassdrumsharmonicaflute Guitar Pro
close

there isn't a video lesson for this song

chords

Dimension

	  		Gtr I (E A D G B E) - 'Andrew Stockdale' 
 
 Intro 
  Q=134 
 4/4 
  Gtr I 
  Wx4            q  q  q  q    q  q  E E Q   4x 
|------------||--------------|---------------|| 
|------------||o-------------|--------------o|| 
|------------||--------------|---------------|| 
|------------||--------------|-----------5---|| 
|------------||o-7--7--7--7--|-7--7--5-7----o|| 
|------------||--------------|---------------|| 
 
 
 Verse 
  $ 
  E 
  W          +W           +W           +W 
|----------|------------|------------|------------| 
|----------|------------|------------|------------| 
|----------|------------|------------|------------| 
|----------|------------|------------|------------| 
|-7--------|-(7)--------|-(7)--------|-(7)--------| 
|-0--------|-(0)--------|-(0)--------|-(0)--------| 
 
 
  W          +W           +W           +W 
|----------|------------|------------|--------| 
|----------|------------|------------|--------| 
|----------|------------|------------|--------| 
|----------|------------|------------|--------| 
|-7--------|-(7)--------|-(7)--------|-(7)----| 
|-0--------|-(0)--------|-(0)--------|-(0)----| 
 
 
  A 
  W          +W           +W           +W 
|----------|------------|------------|------------| 
|----------|------------|------------|------------| 
|----------|------------|------------|------------| 
|-7--------|-(7)--------|-(7)--------|-(7)--------| 
|-0--------|-(0)--------|-(0)--------|-(0)--------| 
|----------|------------|------------|------------| 
 
 
  E 
  W          +W           +W           +W 
|----------|------------|------------|--------| 
|----------|------------|------------|--------| 
|----------|------------|------------|--------| 
|----------|------------|------------|--------| 
|-7--------|-(7)--------|-(7)--------|-(7)----| 
|-0--------|-(0)--------|-(0)--------|-(0)----| 
 
 
  B                       A 
  W          +W           W          +H.      Q 
|----------|------------|----------|--------------| 
|----------|------------|----------|--------------| 
|----------|------------|----------|--------------| 
|-9--------|-(9)--------|-7--------|-(7)----------| 
|----------|------------|----------|--------------| 
|-7--------|-(7)--------|-5--------|-(5)----------| 
 
 
   Chorus 
     E  Q   Q   Q   E    +E   Q   Q   Q   E 
||--------------------|---------------------| 
||o-------------------|---------------------| 
||--------------------|---------------------| 
||--------------------|--------------12--12-| 
||o--------10--11--12-|-(12)-13--14---------| 
||--10-12-------------|---------------------| 
 
 
                                   D.S. 
   E  Q   Q   Q   E    +E   Q   Q   Q   E 
|-------------------|----------------------|| 
|-------------------|---------------------o|| 
|-------------------|----------------------|| 
|-14-12-------------|----------------------|| 
|--------14--13--12-|-(12)-11--10---------o|| 
|-------------------|--------------12--12--|| 
 
 
   E  Q   Q   Q   E    +E   Q   Q   Q   E 
|-------------------|---------------------| 
|-------------------|---------------------| 
|-------------------|--------------12--12-| 
|--------10--11--12-|-(12)-13--14---------| 
|-10-12-------------|---------------------| 
|-------------------|---------------------| 
 
 
   E  Q   Q   Q   E    +E   Q   Q   Q   E 
|-------------------|----------------------| 
|-------------------|----------------------| 
|-14-12-------------|----------------------| 
|--------14--13--12-|-(12)-11--10----------| 
|-------------------|--------------12--12--| 
|-------------------|----------------------| 
 
 
   E  Q   Q   Q   E    +E   Q   Q   Q   E 
|-------------------|---------------------| 
|-------------------|---------------------| 
|-------------------|---------------------| 
|-------------------|--------------12--12-| 
|--------10--11--12-|-(12)-13--14---------| 
|-10-12-------------|---------------------| 
 
 
   E  Q   Q   Q   E    +E   Q   Q   Q. 
|-------------------|---------------------| 
|-------------------|---------------------| 
|-------------------|---------------------| 
|-14-12-------------|---------------------| 
|--------14--13--12-|-(12)-11--10---------| 
|-------------------|--------------12-----| 
 
 
   Bridge 
                             1.,2.,3.                   4. 
    E5                  B5   A5                  D5     A5 
    W          +H.      Q    W          +H.      Q   4x W          +H.      Q 
||-----------|-------------|----------|--------------||----------|------------| 
||o----------|-------------|----------|-------------o||----------|------------| 
||-----------|-------------|----------|--------------||----------|------------| 
||--9--------|-(9)---------|----------|----------7---||----------|------------| 
||o-7--------|-(7)------9--|-7--------|-(7)------5--o||-7--------|-(7)--------| 
||-----------|----------7--|-5--------|-(5)----------||-5--------|-(5)--------| 
 
 
   Chorus 
     E  Q   Q   Q   E    +E   Q   Q   Q   E 
||--------------------|---------------------| 
||o-------------------|---------------------| 
||--------------------|---------------------| 
||--------------------|--------------12--12-| 
||o--------10--11--12-|-(12)-13--14---------| 
||--10-12-------------|---------------------| 
 
 
   E  Q   Q   Q   E    +E   Q   Q   Q   E 
|-------------------|----------------------|| 
|-------------------|---------------------o|| 
|-------------------|----------------------|| 
|-14-12-------------|----------------------|| 
|--------14--13--12-|-(12)-11--10---------o|| 
|-------------------|--------------12--12--|| 
 
 
 Verse 
  E 
  W          +W           +W           +W 
|----------|------------|------------|------------| 
|----------|------------|------------|------------| 
|----------|------------|------------|------------| 
|----------|------------|------------|------------| 
|-7--------|-(7)--------|-(7)--------|-(7)--------| 
|-0--------|-(0)--------|-(0)--------|-(0)--------| 
 
 
  W          +W           +W           +W 
|----------|------------|------------|--------| 
|----------|------------|------------|--------| 
|----------|------------|------------|--------| 
|----------|------------|------------|--------| 
|-7--------|-(7)--------|-(7)--------|-(7)----| 
|-0--------|-(0)--------|-(0)--------|-(0)----| 
 
 
  A 
  W          +W           +W           +W 
|----------|------------|------------|------------| 
|----------|------------|------------|------------| 
|----------|------------|------------|------------| 
|-7--------|-(7)--------|-(7)--------|-(7)--------| 
|-0--------|-(0)--------|-(0)--------|-(0)--------| 
|----------|------------|------------|------------| 
 
 
  E 
  W          +W           +W           +W 
|----------|------------|------------|--------| 
|----------|------------|------------|--------| 
|----------|------------|------------|--------| 
|----------|------------|------------|--------| 
|-7--------|-(7)--------|-(7)--------|-(7)----| 
|-0--------|-(0)--------|-(0)--------|-(0)----| 
 
 
  B                       A 
  W          +W           W          +H.      Q 
|----------|------------|----------|--------------| 
|----------|------------|----------|--------------| 
|----------|------------|----------|--------------| 
|-9--------|-(9)--------|-7--------|-(7)----------| 
|----------|------------|----------|--------------| 
|-7--------|-(7)--------|-5--------|-(5)----------| 
 
 
   Chorus 
     E  Q   Q   Q   E    +E   Q   Q   Q   E 
||--------------------|---------------------| 
||o-------------------|---------------------| 
||--------------------|---------------------| 
||--------------------|--------------12--12-| 
||o--------10--11--12-|-(12)-13--14---------| 
||--10-12-------------|---------------------| 
 
 
   E  Q   Q   Q   E    +E   Q   Q   Q   E 
|-------------------|----------------------|| 
|-------------------|---------------------o|| 
|-------------------|----------------------|| 
|-14-12-------------|----------------------|| 
|--------14--13--12-|-(12)-11--10---------o|| 
|-------------------|--------------12--12--|| 
 
 
   Outro 
    q  q  q  q    q  q  E E Q   4x W 
||--------------|---------------||------*| 
||o-------------|--------------o||------*| 
||--------------|---------------||------*| 
||--------------|-----------5---||------*| 
||o-7--7--7--7--|-7--7--5-7----o||-7----*| 
||--------------|---------------||------*| 
 
 
Duration Legend 
--------------- 
W - whole; H - half; Q - quarter; E - 8th; S - 16th; T - 32nd; X - 64th; a - acciaccatura 
+ - note tied to previous; . - note dotted; .. - note double dotted 
Uncapitalized letters represent notes that are staccato (1/2 duration) 
Irregular groupings are notated above the duration line 
Duration letters will always appear directly above the note/fret number it represents the 
duration for.  Duration letters with no fret number below them represent rests.  Multi- 
bar rests are notated in the form Wxn, where n is the number of bars to rest for.  Low 
melody durations appear below the staff 
 
Tablature Legend 
---------------- 
 h   - hammer-on 
 p   - pull-off 
 b   - bend 
 pb  - pre-bend 
 r   - bend release (if no number after the r, then release immediately) 
 /\  - slide into or out of (from/to "nowhere") 
 s   - legato slide 
 S   - shift slide 
  - natural harmonic 
{n}  - artificial harmonic 
n(n) - tapped harmonic 
 ~   - vibrato 
 tr  - trill 
 T   - tap 
 TP  - trem. picking 
 PM  - palm muting 
\n/  - tremolo bar dip; n = amount to dip 
 \n  - tremolo bar down 
 n/  - tremolo bar up 
/n\  - tremolo bar inverted dip 
 =   - hold bend; also acts as connecting device for hammers/pulls 
 <>  - volume swell (louder/softer) 
 x   - on rhythm slash represents muted slash 
 o   - on rhythm slash represents single note slash 
 
Misc Legend 
----------- 
 |  - bar 
||  - double bar 
||o - repeat start 
o|| - repeat end 
*|  - double bar (ending) 
 :  - bar (freetime) 
 $  - Segno 
 &  - Coda 
Tempo markers -  = BPM(8/16=s8/s16), where s8 = swing 8ths, s16 = swing 16ths 

		  

See also:

tabs Xavier Rudd - To Let tabs Miscellaneous / Australiana - Advance Australia Fair tabs Pete Murray - Please tabs Noiseworks - Touch tabs Ben lee - Something Borrowed, Something Blue tabs Miscellaneous / Australiana - Collingwood Football Club Theme Song
e-chords

Other versions:

tabs Wolfmother - Dimension
auto scroll beats size up size down change color hide chords drawings
tab show chords e-chords YouTube Clip e-chords hide all tabs e-chords go to top tab

share