Wolfmother

Sundial

Wolfmother

bass

by  TERR_SCHMITZ

save to print version add songbook text version e-mail correct tuner
chordsukulelecavacokeyboardtabbassdrumsharmonicaflute Guitar Pro
close

there isn't a video lesson for this song

chords

Sundial

	  		

Intro(Turn on distortion and wah.) 
G|---------------------------------------------------| 
D|--------5--------5---------------------------------| 
A|----5h7---7--5h7---7-5h7-7-5-7-5---5---------------| 
E|-0-------------------------------7---7-6-5-3-3--x2-| 

G|--------------------------------------------------| 
D|--------5--------7^b1-5---------------------------| 
A|----5h7---7--5h7--------7-5-7-5---5---------------| 
E|-0------------------------------7---7-6-5-3-3--x2-| 

       (Turn off distortion and wah.) 
G|-----------------------------------------------| 
D|------------55-5-----------------------7--7/9*-| 
A|-7*-----5*-------x5-3*---3-3-5-3\--------------| 
E|----------------------------------5*-----------| 

G|------------------------------------------------| 
D|------------55-5---------33/5-------------------| 
A|-7*---6-5*-------x5-3*--------5-3\--------------| 
E|-----------------------------------5*---5--5/7*-| 

(0:33) 
Pre-verse                                        (x2) 
G|---------------------------------------------------| 
D|--------5--------5---------------------------------| 
A|----5h7---7--5h7---7-5h7-7-5-7-5---5---------------| 
E|-0-------------------------------7---7-6-5-3-3--x2-| 

(0:44) 
Verse                                        (x2) 
G|-----------------------------------------------| 
D|--------5--------5-----------------------------| 
A|----5h7---7--5h7---7-5h7---5---5---------------| 
E|-0-----------------------7---7---7-6-5-3-3--x2-| 
                                                  (x2) 
G|---------------------------------------------------| 
D|--------5--------5---------------------------------| 
A|----5h7---7--5h7---7-5h7-7-5-7-5---5---------------| 
E|-0-------------------------------7---7-6-5-3-3--x2-| 

(1:06) 
Chorus 
G|-----------------------------------------------| 
D|------------55-5--------------------------7/9*-| 
A|-7*-----5*-------x5-3*---3-3/7\3\------7h9-----| 
E|----------------------------------5*-----------| 

G|---------------------------------------------------------| 
D|--------------55-5-----------12121212-10\----------------| 
A|-5/7*-----5*-------x5-3*--/12----------------------------| 
E|--------------------------------------------5*---555557\-| 

(1:28) 
Pre-verse                                        (x2) 
G|---------------------------------------------------| 
D|--------5--------5---------------------------------| 
A|----5h7---7--5h7---7-5h7-7-5-7-5---5---------------| 
E|-0-------------------------------7---7-6-5-3-3--x2-| 

(1:39) 
Verse                                        (x2) 
G|-----------------------------------------------| 
D|--------5--------5-----------------------------| 
A|----5h7---7--5h7---7-5h7---5---5---------------| 
E|-0-----------------------7---7---7-6-5-3-3--x2-| 
                                                  (x2) 
G|---------------------------------------------------| 
D|--------5--------5---------------------------------| 
A|----5h7---7--5h7---7-5h7-7-5-7-5---5---------------| 
E|-0-------------------------------7---7-6-5-3-3--x2-| 

(2:01) 
Chorus 
G|------------------------------------------------7h9-| 
D|------------55-5-----------------------------7h9----| 
A|-7*-----5*-------x5-3*---3-3/5-3\---------7h9-------| 
E|----------------------------------5*---5/7----------| 

G|-------------------------------------------------------| 
D|------------55-5-----------14141414-10\----------------| 
A|-7*-----5*-------x5-3*--/14----------------------------| 
E|--------------------------------------------5*---0-5\7-| 

(2:23) 
Bridge                       (x4) 
G|-------------------------------| 
D|-----5-0-5h7-0-5h8-0-7h8-0-8h9-| 
A|-5h7---------------------------| 
E|-------------------------------| 

(2:34) 
Solo 
G|------------------------------------------------------------------------------| 
D|---------5\4-0-2/4-0-2*--------------------------4/5-7-5-4p0-2*----/7---------| 
A|-5*------------------------5/7-7*------5-5*---------------------------5*--3---| 
E|----------------------------------------------------------------------------3-| 
                                              (x4) 
G|-----------------------------------------------| 
D|--------5--------5-----------------------------| 
A|----5h7---7--5h7---7-5h7---5---5---------------| 
E|-0-----------------------7---7---7-6-5-3-3--x2-| 

(3:19) 
Outro                                                      (x4) 
G|-----------------------------|-------------------------------|--------| 
D|-----------------------------|-----5-0-5h7-0-5h8-0-7h8-0-8h9-|--------| 
A|-7*-----5*-----3*-----0*-----|-5h7---------------------------|--------| 
E|-----------------------------|-------------------------------|-12-\\\-| 
		  

See also:

bass Grinspoon - Boundary bass Grinspoon - Black Friday bass Grinspoon - Sercrets bass Grinspoon - Chemical Heart bass Grinspoon - Any Day Any How bass The Twilights - Stop The World For A Day
e-chords

Other versions:

bass Wolfmother - Sundial
auto scroll beats size up size down change color hide chords drawings
tab show chords e-chords YouTube Clip e-chords hide all tabs e-chords go to top tab

share