Wolfmother

Eyes Open

Wolfmother

tabs

by  MARCNAGEL

save to print version add songbook text version e-mail correct tuner
chordsukulelecavacokeyboardtabbassdrumsharmonicaflute Guitar Pro
close

there isn't a video lesson for this song

chords

Eyes Open

	  		 

Intro: 

D||--0-0-0---0----2-2-2---3--3--3---| 
B||--3-3-3---2----3-3-3---3--3--3---| 
G||--2-2-2---2----2-2-2---2--2--2---|2x 
D||--0-0-0---0----0-0-0---0--0--0---| 
A||---------------------------------| 
D||---------------------------------| 

Verse: 


D||--0-0-0---0----2-2-2---3--3--3---| 
B||--3-3-3---2----3-3-3---3--3--3---| 
G||--2-2-2---2----2-2-2---2--2--2---|2x 
D||--0-0-0---0----0-0-0---0--0--0---| 
A||---------------------------------| 
D||---------------------------------| 

D||--------|--------|  |--------|  |--------|  |--------| 
B||--------|---6----|  |---5----|  |---1----|  |---2----| 
G||------5-|-----7--|5x|-----6--|5x|-----2--|5x|-----2--|5x 
D||--5h7---|-8------|  |-7------|  |-3------|  |-2------| 
A||--------|--------|  |--------|  |--------|  |--------| 
D||--------|--------|  |--------|  |--------|  |--------| 

Chorus: 

D|--------------------------------------|---------------------------------| 
B|--------------------------------------|---------------------------------| 
G|---------------------------------10---|---------------------------------| 
D|---------------------------10-12----12|---------------------------------| 
A|-----5-----5-----5----10h12-----------|-----5-----5-----5---------------| 
D|-0-0---0-0---0-0--0-0-----------------|-0-0---0-0---0-0---0-0-6-6-5-3-0-|x4 

D|----------------------------------|---------------------------------| 
B|----------------------------------|---------------------------------| 
G|-3-3-3-3-3-3-3-3-3-3-3-3-3-3-3-3--|-2-2-2-2-2-2-2-2-2-2-2-2-2-2-2-2-| 
D|-3-3-3-3-3-3-3-3-3-3-3-3-3-3-3-3--|-2-2-2-2-2-2-2-2-2-2-2-2-2-2-2-2-| 
A|-1-1-1-1-1-1-1-1-1-1-1-1-1-1-1-1--|-0-0-0-0-0-0-0-0-0-0-0-0-0-0-0-0-| 
D|----------------------------------|---------------------------------| 


Brigde: 
D|---------------------------------|---------------------------------| 
B|---------------------------------|---------------------------------| 
G|---------------------------------|---------------------------------| 
D|-3-3-3-3-3-3-3-3-3-3-3-3-3-3-3-3-|-2-2-2-2-2-2-2-2-2-2-2-2-2-2-2-2-| 
A|-3-3-3-3-3-3-3-3-3-3-3-3-3-3-3-3-|-2-2-2-2-2-2-2-2-2-2-2-2-2-2-2-2-| 
D|-3-3-3-3-3-3-3-3-3-3-3-3-3-3-3-3-|-2-2-2-2-2-2-2-2-2-2-2-2-2-2-2-2-| 
                           ^--Start to reduce the time about here 

D|-------------------------|-------------------------|| 
B|-------------------------|-------------------------|| 
G|-------------------------|-3--3--3--3--3--3--3--3--|| 
D|-0--0--0--0--0--0--0--0--|-3--3--3--3--3--3--3--3--|| 
A|-0--0--0--0--0--0--0--0--|-1--1--1--1--1--1--1--1--|| 
D|-0--0--0--0--0--0--0--0--|-------------------------|| 
                                                     ||6x 
D|-------------------------|-------------------------|| 
B|-------------------------|-------------------------|| 
G|-------------------------|-5--5--5--5--------------|| 
D|-3--3--3--3--3--3--3--3--|-5--5--5--5--5--5--3--3--|| 
A|-3--3--3--3--3--3--3--3--|-3--3--3--3--5--5--3--3--|| 
D|-3--3--3--3--3--3--3--3--|-------------5--5--3--3--||  
		  

See also:

tabs Powderfinger - My Happiness tabs The Screaming Jets - Better tabs John Butler Trio - Pickapart tabs Powderfinger - Sunsets (Acoustic) tabs Xavier Rudd - Green Spandex tabs The Veronicas - Everything I'm Not
e-chords

Other versions:

tabs Snow Patrol - Eyes Open tabs Wolfmother - Eyes Open tabs Jason Mraz - Eyes Open (remember My Name)
auto scroll beats size up size down change color hide chords drawings
tab show chords e-chords YouTube Clip e-chords hide all tabs e-chords go to top tab

share