Wolfmother

Gypsy Caravan

Wolfmother

tabs

by  VICTBORGES

save to print version add songbook text version e-mail correct tuner
chordsukulelecavacokeyboardtabbassdrumsharmonicaflute Guitar Pro
close

there isn't a video lesson for this song

chords

Gypsy Caravan

	  		
Intro 

e|----------------------------------------------------------------| 
B|----------------------------------------------------------------| 
G|----------------------------------------------------------------| 
D|----------------------------------------------------------------|    x4 
A|----------------------------------------------8-----------------| 
E|--8h10--10--10--10-----10--10-----10--10--10-----10--10--10-----| 


verse 1 


e|----------------------------------------------------------------| 
B|----------------------------------------------------------------| 
G|----------------------------------------------------------------| 
D|----------------------------------------------------------------|    x8 
A|----------------------------------------------8-----------------| 
E|--8h10--10--10--10-----10--10-----10--10--10-----10--10--10-----| 


Chorus 1 


e|----------------------------------------------------------------| 
B|----------------------------------------------------------------| 
G|----------------------------------------------------------------| 
D|--12--12--12--12?-12\-------------10--10--10--10?-10\-----------| 
A|--12--12--12--12?-12\-------------10--10--10--10--10\-----------| 
E|--10?-10--10--10?-10\--------------8---8---8---8---8\-----------| 
                                                                          

e|----------------------------------------------------------------| 
B|----------------------------------------------------------------| 
G|----------------------------------------------10----------------| 
D|-10/12--12--12--12-----12--12-----12--12--12--10--12--12--12----| 
A|-10/12--12--12--12-----12--12-----12--12--12---8--12--12--12----| 
E|--8/10--10--10--10-----10--10-----10--10--10------10--10--10----| 


e|----------------------------------------------------------------| 
B|----------------------------------------------------------------| 
G|----------------------------------------------10----------------| 
D|-10/12--12--12--12-----12--12-----12--12--12--10--12--12--12----| 
A|-10/12--12--12--12-----12--12-----12--12--12---8--12--12--12----| 
E|--8/10--10--10--10-----10--10-----10--10--10------10--10--10----| 


e|----------------------------------------------------------------| 
B|----------------------------------------------------------------| 
G|----------------------------------------------------------------| 
D|--12--12--12--12?-12\-------------10--10--10--10?-10\-----------| 
A|--12--12--12--12?-12\-------------10--10--10--10--10\-----------| 
E|--10?-10--10--10?-10\--------------8---8---8---8---8\-----------| 


e|----------------------------------------------------------------| 
B|----------------------------------------------------------------| 
G|----------------------------------------------10----------------| 
D|-10/12--12--12--12-----12--12-----12--12--12--10--12--12--12----| 
A|-10/12--12--12--12-----12--12-----12--12--12---8--12--12--12----| 
E|--8/10--10--10--10-----10--10-----10--10--10------10--10--10----| 


e|----------------------------------------------------------------| 
B|----------------------------------------------------------------| 
G|----------------------------------------------10----------------| 
D|-10/12--12--12--12-----12--12-----12--12--12--10--12--12--12----| 
A|-10/12--12--12--12-----12--12-----12--12--12---8--12--12--12----| 
E|--8/10--10--10--10-----10--10-----10--10--10------10--10--10----| 


e|----------------------------------------------------------------| 
B|----------------------------------------------------------------| 
G|----------------------------------------------------------------| 
D|--12--12--12--12?-12\-------------10--10--10--10?-10\-----------| 
A|--12--12--12--12?-12\-------------10--10--10--10--10\-----------| 
E|--10?-10--10--10?-10\--------------8---8---8---8---8\-----------| 


e|----------------------------------------------------------------| 
B|----------------------------------------------------------------| 
G|----------------------------------------------------------------| 
D|--8------8------8------8------8------8------8------8------------| 
A|--8------8------8------8------8------8------8------8------------| 
E|--6------6------6------6------6------6------6------6------------| 


e|----------------------------------------------------------------| 
B|----------------------------------------------------------------| 
G|----------------------------------------------------------------| 
D|--8------8------8------8------8------10--10--10--10--10--10--10-| 
A|--8------8------8------8------8------10--10--10--10--10--10--10-| 
E|--6------6------6------6------6-------8---8---8---8---8---8---8-| 


verse 2 


e|----------------------------------------------------------------| 
B|----------------------------------------------------------------| 
G|----------------------------------------------------------------| 
D|----------------------------------------------------------------|    x10 
A|----------------------------------------------8-----------------| 
E|--8h10--10--10--10-----10--10-----10--10--10-----10--10--10-----| 


Chorus 2 


e|----------------------------------------------------------------| 
B|----------------------------------------------------------------| 
G|----------------------------------------------------------------| 
D|--12--12--12--12?-12\-------------10--10--10--10?-10\-----------| 
A|--12--12--12--12?-12\-------------10--10--10--10--10\-----------| 
E|--10?-10--10--10?-10\--------------8---8---8---8---8\-----------| 


e|----------------------------------------------------------------| 
B|----------------------------------------------------------------| 
G|----------------------------------------------10----------------| 
D|-10/12--12--12--12-----12--12-----12--12--12--10--12--12--12----| 
A|-10/12--12--12--12-----12--12-----12--12--12---8--12--12--12----| 
E|--8/10--10--10--10-----10--10-----10--10--10------10--10--10----| 


e|----------------------------------------------------------------| 
B|----------------------------------------------------------------| 
G|----------------------------------------------10----------------| 
D|-10/12--12--12--12-----12--12-----12--12--12--10--12--12--12----| 
A|-10/12--12--12--12-----12--12-----12--12--12---8--12--12--12----| 
E|--8/10--10--10--10-----10--10-----10--10--10------10--10--10----| 


e|----------------------------------------------------------------| 
B|----------------------------------------------------------------| 
G|----------------------------------------------------------------| 
D|--12--12--12--12?-12\-------------10--10--10--10?-10\-----------| 
A|--12--12--12--12?-12\-------------10--10--10--10--10\-----------| 
E|--10?-10--10--10?-10\--------------8---8---8---8---8\-----------| 


e|----------------------------------------------------------------| 
B|----------------------------------------------------------------| 
G|----------------------------------------------10----------------| 
D|-10/12--12--12--12-----12--12-----12--12--12--10--12--12--12----| 
A|-10/12--12--12--12-----12--12-----12--12--12---8--12--12--12----| 
E|--8/10--10--10--10-----10--10-----10--10--10------10--10--10----| 


e|----------------------------------------------------------------| 
B|----------------------------------------------------------------| 
G|----------------------------------------------10----------------| 
D|-10/12--12--12--12-----12--12-----12--12--12--10--12--12--12----| 
A|-10/12--12--12--12-----12--12-----12--12--12---8--12--12--12----| 
E|--8/10--10--10--10-----10--10-----10--10--10------10--10--10----| 


e|----------------------------------------------------------------| 
B|----------------------------------------------------------------| 
G|----------------------------------------------------------------| 
D|--12--12--12--12?-12\-------------10--10--10--10?-10\-----------| 
A|--12--12--12--12?-12\-------------10--10--10--10--10\-----------| 
E|--10?-10--10--10?-10\--------------8---8---8---8---8\-----------| 


e|----------------------------------------------------------------| 
B|----------------------------------------------------------------| 
G|----------------------------------------------------------------| 
D|--8------8------8------8------8------8------8------8------------| 
A|--8------8------8------8------8------8------8------8------------| 
E|--6------6------6------6------6------6------6------6------------| 


e|----------------------------------------------------------------| 
B|----------------------------------------------------------------| 
G|----------------------------------------------------------------| 
D|--8------8------8------8------8------10--10--10--10--10--10--10-| 
A|--8------8------8------8------8------10--10--10--10--10--10--10-| 
E|--6------6------6------6------6-------8---8---8---8---8---8---8-| 


Solo 


e|----------------------------------------------------------------| 
B|----------------------------------------------------------------| 
G|----------------12p10-----10---------------------10p8-----8-----| 
D|--12-----12----------12------12----10-----10---------10-----10--| 
A|--12-----12------------------------10-----10--------------------| 
E|--10-----10-------------------------8------8--------------------| 


e|----------------------------------------------------------------| 
B|----------------------------------------------------------------| 
G|-----------------8p6-----6-------------------6/8--8/10----------| 
D|---8------8----------8------8-----------6/8---------------------| 
A|---8------8------------------------6/8--------------------------| 
E|---6------6-----------------------------------------------------| 


e|----------------------------------------------------------------| 
B|----------------------------------------------------------------| 
G|----------------12p10-----10---------------------10p8-----8-----| 
D|--12-----12----------12------12----10-----10---------10-----10--| 
A|--12-----12------------------------10-----10--------------------| 
E|--10-----10-------------------------8------8--------------------| 


e|----------------------------------------------------------------| 
B|----------------------------------------------------------------| 
G|-----------------8p6-----6-------------------6/8--8/10----------| 
D|---8------8----------8------8-----------6/8---------------------| 
A|---8------8------------------------6/8--------------------------| 
E|---6------6-----------------------------------------------------| 


e|----------------------------------------------------------------| 
B|----------------------------------------------------------------| 
G|----------------12p10-----10---------------------10p8-----8-----| 
D|--12-----12----------12------12----10-----10---------10-----10--| 
A|--12-----12------------------------10-----10--------------------| 
E|--10-----10-------------------------8------8--------------------| 


e|----------------------------------------------------------------| 
B|----------------------------------------------------------------| 
G|-----------------8p6-----6-------------------6/8--8/10----------| 
D|---8------8----------8------8-----------6/8---------------------| 
A|---8------8------------------------6/8--------------------------| 
E|---6------6-----------------------------------------------------| 


Bridge 


e|----------------------------------------------------------------| 
B|----------------------------------------------------------------| 
G|----------------------------------------------------------------| 
D|12---12-12---12-12---12-12---12-10---10-10---10-10---10-10---10-| 
A|12---12-12---12-12---12-12---12-10---10-10---10-10---10-10---10-| 
E|10---10-10---10-10---10-10---10--8----8--8----8--8----8--8----8-| 


e|----------------------------------------------------------------| 
B|----------------------------------------------------------------| 
G|----------------------------------------------------------------| 
D|-8----8--8----8--8----8--8----8--8----8--8----8-10---10-10---10-| 
A|-8----8--8----8--8----8--8----8--8----8--8----8-10---10-10---10-| 
E|-6----6--6----6--6----6--6----6--6----6--6----6--8----8--8----8-| 


e|----------------------------------------------------------------| 
B|----------------------------------------------------------------| 
G|----------------------------------------------------------------| 
D|12---12-12---12-12---12-12---12-10---10-10---10-10---10-10---10-| 
A|12---12-12---12-12---12-12---12-10---10-10---10-10---10-10---10-| 
E|10---10-10---10-10---10-10---10--8----8--8----8--8----8--8----8-| 


e|----------------------------------------------------------------| 
B|----------------------------------------------------------------| 
G|----------------------------------------------------------------| 
D|-8----8--8----8--8----8--8----8--8----8--8----8-10---10-10---10-| 
A|-8----8--8----8--8----8--8----8--8----8--8----8-10---10-10---10-| 
E|-6----6--6----6--6----6--6----6--6----6--6----6--8----8--8----8-| 


e|----------------------------------------------------------------| 
B|----------------------------------------------------------------| 
G|----------------------------------------------------------------| 
D|--12-----12-------------------12-----12-------------------------| 
A|--12-----12-------------------12-----12-------------------------| 
E|--10-----10-------------------10-----10-------------------------| 


e|----------------------------------------------------------------| 
B|----------------------------------------------------------------| 
G|----------------------------------------------------------------| 
D|--12-----12-------------------13---12---10---12---10----8-------| 
A|--12-----12-------------------13---12---10---12---10----8-------| 
E|--10-----10-------------------11---10----8---10----8----6-------| 


e|----------------------------------------------------------------| 
B|----------------------------------------------------------------| 
G|----------------------------------------------------------------| 
D|--12-----12-------------------12-----12-------------------------| 
A|--12-----12-------------------12-----12-------------------------| 
E|--10-----10-------------------10-----10-------------------------| 


e|----------------------------------------------------------------| 
B|----------------------------------------------------------------| 
G|----------------------------------------------------------------| 
D|--12-----12-------------------13---12---10---12---10----8-------| 
A|--12-----12-------------------13---12---10---12---10----8-------| 
E|--10-----10-------------------11---10----8---10----8----6-------| 


e|----------------------------------------------------------------| 
B|----------------------------------------------------------------| 
G|----------------------------------------------------------------| 
D|--12-----12-------------------12-----12-------------------------| 
A|--12-----12-------------------12-----12-------------------------| 
E|--10-----10-------------------10-----10-------------------------| 


e|----------------------------------------------------------------| 
B|----------------------------------------------------------------| 
G|----------------------------------------------------------------| 
D|--12-----12-------------------13---12---10---12---10----8-------| 
A|--12-----12-------------------13---12---10---12---10----8-------| 
E|--10-----10-------------------11---10----8---10----8----6-------| 


Chorus 3 


e|----------------------------------------------------------------| 
B|----------------------------------------------------------------| 
G|----------------------------------------------------------------| 
D|--8------8------8------8------8------8------8------8------------| 
A|--8------8------8------8------8------8------8------8------------| 
E|--6------6------6------6------6------6------6------6------------| 


e|----------------------------------------------------------------| 
B|----------------------------------------------------------------| 
G|----------------------------------------------------------------| 
D|--8------8------8------8------8-------8------10--10--10--10--10-| 
A|--8------8------8------8------8-------8------10--10--10--10--10-| 
E|--6------6------6------6------6-------6-------8---8---8---8---8-| 


e|----------------------------------------------------------------| 
B|----------------------------------------------------------------| 
G|----------------------------------------------------------------| 
D|----------------------------------------------------------------| 
A|----------------------------------------------8-----------------| 
E|--8h10--10--10--10-----10--10-----10--10--10-----10--10--10-----| 


e|----------------------------------------------------------------| 
B|----------------------------------------------------------------| 
G|----------------------------------------------------------------| 
D|----------------------------------------------------------------| 
A|----------------------------------------------8-----------------| 
E|--8h10--10--10--10-----10--10-----10--10--10-----10--10--10-----| 


e|----------------------------------------------------------------| 
B|----------------------------------------------------------------| 
G|----------------------------------------------------------------| 
D|--8------8------8------8------8------8------8------8------------| 
A|--8------8------8------8------8------8------8------8------------| 
E|--6------6------6------6------6------6------6------6------------| 


e|----------------------------------------------------------------| 
B|----------------------------------------------------------------| 
G|----------------------------------------------------------------| 
D|--8------8------8------8------8-------8------10--10--10--10--10-| 
A|--8------8------8------8------8-------8------10--10--10--10--10-| 
E|--6------6------6------6------6-------6-------8---8---8---8---8-| 


e|----------------------------------------------------------------| 
B|----------------------------------------------------------------| 
G|----------------------------------------------------------------| 
D|----------------------------------------------------------------| 
A|----------------------------------------------8-----------------| 
E|--8h10--10--10--10-----10--10-----10--10--10-----10--10--10-----| 


e|----------------------------------------------------------------| 
B|----------------------------------------------------------------| 
G|----------------------------------------------------------------| 
D|----------------------------------------------------------------| 
A|----------------------------------------------8-----------------| 
E|--8h10--10--10--10-----10--10-----10--10--10-----10--10--10-----| 


e|----------------------------------------------------------------| 
B|----------------------------------------------------------------| 
G|----------------------------------------------------------------| 
D|--8------8------8------8------8------8------8------8------------| 
A|--8------8------8------8------8------8------8------8------------| 
E|--6------6------6------6------6------6------6------6------------| 


e|----------------------------------------------------------------| 
B|----------------------------------------------------------------| 
G|----------------------------------------------------------------| 
D|--8------8------8------8------8-------8------10--10--10--10--10-| 
A|--8------8------8------8------8-------8------10--10--10--10--10-| 
E|--6------6------6------6------6-------6-------8---8---8---8---8-| 


Outro 


e|----------------------------------------------------------------| 
B|----------------------------------------------------------------| 
G|----------------------------------------------------------------| 
D|--12-----12-------------------12-----12-------------------------| 
A|--12-----12-------------------12-----12-------------------------| 
E|--10-----10-------------------10-----10-------------------------| 


e|----------------------------------------------------------------| 
B|----------------------------------------------------------------| 
G|----------------------------------------------------------------| 
D|--12-----12-------------------13---12---10---12---10----8---12\-| 
A|--12-----12-------------------13---12---10---12---10----8---12\-| 
E|--10-----10-------------------11---10----8---10----8----6---10\-| 
		  

See also:

tabs Powderfinger - My Happiness tabs The Screaming Jets - Better tabs John Butler Trio - Pickapart tabs Powderfinger - Sunsets (Acoustic) tabs Xavier Rudd - Green Spandex tabs The Veronicas - Everything I'm Not
e-chords

Other versions:

tabs Wolfmother - Gypsy Caravan
auto scroll beats size up size down change color hide chords drawings
tab show chords e-chords YouTube Clip e-chords hide all tabs e-chords go to top tab

share