Wolfmother

Cosmonaut

Wolfmother

tabs

by  PAULLET3

save to print version add songbook text version e-mail correct tuner
chordsukulelecavacokeyboardtabbassdrumsharmonicaflute Guitar Pro
close

there isn't a video lesson for this song

chords

Cosmonaut

	  		

This is my first tab, it took a little bit to work this out but is mostly correct, 
the SOLO is a bit sketchy (but not that bad) so interpret to your own liking, 
Critical Feedback and Corrections are encouraged. Thank you and Enjoy :) 


Tuning: Standard 

INTRO 
e|------------------------------------------| 
B|------------------------------------------| 
G|------999----7----99----777----9----------| 
D|------999----7----99----777----9----------| 
A|------777----5----77----555----7----------| 
E|------------------------------------------| 

e|-------------------------------------------------------------------|| 
B|----9-10-9----12-13-12----11-12-11----14-15-14----12-13-12-------o-|| 
G|----9-9--9----12-12-12----11-11-11----14-14-14----12-12-12---------|| 
D|-------------------------------------------------------------------|| 
A|-----------------------------------------------------------------o-|| 
E|-0-----------------------------------------------------------------|| 


verse 1 

GUITAR 1 
e|-------------------------------------------------------------------|| 
B|----9-10-9----12-13-12----11-12-11----14-15-14----12-13-12-------o-|| 
G|----9-9--9----12-12-12----11-11-11----14-14-14----12-12-12---------|| x8 
D|-------------------------------------------------------------------|| 
A|-----------------------------------------------------------------o-|| 
E|-0-----------------------------------------------------------------|| 

GUITAR 2 
e|----------------| 
B|----------------| 
G|-----99~~~~-----| played at the beginning of each phrase in the verse 
D|-----99~~~~-----| 
A|-----77~~~~-----| 
E|----------------| 

Chorus 

GUITAR 1 
e|----------------------------------------------------| 
B|----------------------------------------------------| 
G|----------------------------------------------------| 
D|---7-7-7-2--9-9-9-2--12-12-12-12--11-11-11-11-------| 
A|---7-7-7-2--9-9-9-2--12-12-12-12--11-11-11-11-------| 
E|---5-5-5-0--7-7-7-0--10-10-10-10--9--9--9--9--------| 

GUITAR 2 
e|---------------------------------------------------------------------------| 
B|---------------------------------------------------------------------------| 
G|---6h7p6h7p6h7p6h7p6h7p6h7p6h7p6h7-------8h9p8h9p8h9p8h9p8h9p8h9p8h9p8h9---| 
D|---------------------------------------------------------------------------| 
A|---------------------------------------------------------------------------| 
E|---------------------------------------------------------------------------| 

GUITAR 2 cont. 
e|-----------------------------------------------------------------------------------------------------------| 
B|-----------------------------------------------------------------------------------------------------------| 
G|---11h12p11h12p11h12p11h12p11h12p11h12p11h12p11h12-------10h11p10h11p10h11p10h11p10h11p10h11p10h11p10h11---| 
D|-----------------------------------------------------------------------------------------------------------| 
A|-----------------------------------------------------------------------------------------------------------| 
E|-----------------------------------------------------------------------------------------------------------| 


verse 2 

GUITAR 1 
e|-------------------------------------------------------------------|| 
B|----9-10-9----12-13-12----11-12-11----14-15-14----12-13-12-------o-|| 
G|----9-9--9----12-12-12----11-11-11----14-14-14----12-12-12---------|| x6 
D|-------------------------------------------------------------------|| 
A|-----------------------------------------------------------------o-|| 
E|-0-----------------------------------------------------------------|| 

GUITAR 2 
e|----------------| 
B|----------------| 
G|-----99~~~~-----| 
D|-----99~~~~-----| 
A|-----77~~~~-----| 
E|----------------| 


Chorus 

GUITAR 1 
e|----------------------------------------------------| 
B|----------------------------------------------------| 
G|----------------------------------------------------| 
D|---7-7-7-2--9-9-9-2--12-12-12-12--11-11-11-11-------| 
A|---7-7-7-2--9-9-9-2--12-12-12-12--11-11-11-11-------| 
E|---5-5-5-0--7-7-7-0--10-10-10-10--9--9--9--9--------| 

GUITAR 2 
e|---------------------------------------------------------------------------| 
B|---------------------------------------------------------------------------| 
G|---6h7p6h7p6h7p6h7p6h7p6h7p6h7p6h7-------8h9p8h9p8h9p8h9p8h9p8h9p8h9p8h9---| 
D|---------------------------------------------------------------------------| 
A|---------------------------------------------------------------------------| 
E|---------------------------------------------------------------------------| 

GUITAR 2 cont. 
e|-----------------------------------------------------------------------------------------------------------| 
B|-----------------------------------------------------------------------------------------------------------| 
G|---11h12p11h12p11h12p11h12p11h12p11h12p11h12p11h12-------10h11p10h11p10h11p10h11p10h11p10h11p10h11p10h11---| 
D|-----------------------------------------------------------------------------------------------------------| 
A|-----------------------------------------------------------------------------------------------------------| 
E|-----------------------------------------------------------------------------------------------------------| 


INTERLUDE 

GUITAR 1 
e|------------------------------------------------------------------------------------------------| 
B|----------------------------------------------------------------------------------------------o-| 
G|----------9----11----12----11----9----7----9-6-------9----11----12----14----12----7----6--------| x2 
D|------------------------------------------------------------------------------------------------| 
A|----------7----9-----10----9-----7----5----7-4-------7----9-----10----12----10----5----4------o-| 
E|------------------------------------------------------------------------------------------------| 

GUITAR 2 
e|-----------------------------------------------------------|---------| 
B|-----------------------------------------------------------|---------| 
G|----9----7----2----5------------9----7----2----5-----------|---------| The final E overlaps into the solo 
D|----9----7----2----5----5-4-----9----7----2----5----5-4----|----2----| 
A|----7----5----0----3----5-4-----7----5----0----3----5-4----|----2----| 
E|------------------------3-2-------------------------3-2----|----0----| 

SOLO                                                   |--This section has a few more notes in--| 
                                                       |--the phrase but was too quick and    --| 
                                                       |--distorted for me to fully notate.   --| 
e|----------12------12------12------12------12------12--------------------------------------------| 
B|-------12------12-------12------12------12------12----------------------------------------------| 
G|----14b------14b-----14b-----14b-----14b-----14b------pb14-14--14p12----12----------------------| 
D|---------------------------------------------------------------------14---14p12-----------------| 
A|--------------------------------------------------------------------------------14p12-----------| 
E|--------------------------------------------------------------------------------------15p12-----| 

e|-------------------------------------------------12h15--12h15--12h15--12h15--12h15--12h15--15b----| 
B|-------15---------------------------10---12----12-----12-----12-----12-----12-----12-----12-------| 
G|----14b--pb14-14-14-14p12----12-12--12b--14b------------------------------------------------------| 
D|--------------------------14----------------------------------------------------------------------| 
A|--------------------------------------------------------------------------------------------------| 
E|--------------------------------------------------------------------------------------------------| 

e|---pb15-pbr15-12------12--12--15b-pb15-pbr15-12-----12-15br-12---------12----15-----19--------------------| 
B|-----------------15-15--15------------------------15-----------15------15b---18b----22b-------------------| 
G|----------------------------------------------------------------------------------------------------------| 
D|----------------------------------------------------------------------------------------------------------| 
A|----------------------------------------------------------------------------------------------------------| 
E|----------------------------------------------------------------------------------------------------------| 

GUITAR 2 
e|---------|----------------------------------------------------|---------| 
B|---------|----------------------------------------------------|---------| 
G|---------|--7----2----5-----------------7----2----5-----------|---------| Final E overlaps into interlude 
D|----2----|--7----2----5----5-4-----2----7----2----5----5-4----|----2----| 
A|----2----|--5----0----3----5-4-----2----5----0----3----5-4----|----2----| 
E|----0----|-----------------3-2-----0-------------------3-2----|----0----| 

INTERLUDE 

GUITAR 1 
e|------------------------------------------------------------------------------------------------| 
B|----------------------------------------------------------------------------------------------o-| 
G|----------9----11----12----11----9----7----9-6-------9----11----12----14----12----7----6--------| x2 
D|------------------------------------------------------------------------------------------------| 
A|----------7----9-----10----9-----7----5----7-4-------7----9-----10----12----10----5----4------o-| 
E|------------------------------------------------------------------------------------------------| 

GUITAR 2 
e|---------|----------------------------------------------------|---------| 
B|---------|----------------------------------------------------|---------| 
G|---------|--7----2----5------------9----7----2----5-----------|---------| Final chord overlaps into outro 
D|----2----|--7----2----5----5-4-----9----7----2----5----5-4----|----2----| 
A|----2----|--5----0----3----5-4-----7----5----0----3----5-4----|----2----| 
E|----0----|-----------------3-2-------------------------3-2----|----0----| 

OUTRO 

GUITAR 1 
e|-------------------------------------------------------------------|| 
B|----9-10-9----12-13-12----11-12-11----14-15-14----12-13-12-------o-|| 
G|----9-9--9----12-12-12----11-11-11----14-14-14----12-12-12---------|| x4 
D|-------------------------------------------------------------------|| 
A|-----------------------------------------------------------------o-|| 
E|-0-----------------------------------------------------------------|| 

GUITAR 2 
e|----------------| 
B|----------------| 
G|-----99~~~~-----| 
D|-----99~~~~-----| 
A|-----77~~~~-----| 
E|----------------| 

FINAL CHORD 

GUITAR 1          GUITAR 2 
e|---------------|--------------| 
B|---------------|--------------| 
G|---------------|----9~~~~-----| 
D|-----2~~~~-----|----9~~~~-----| 
A|-----2~~~~-----|----7~~~~-----| 
E|-----0~~~~-----|--------------| 

END 



************************************ 

| /   slide up 
| \   slide down 
| h   hammer-on 
| p   pull-off 
| ~   vibrato 
| +   harmonic 
| x   Mute note 
| b   Bend 
| pb  Pre-bend 
| br  Bend release 
| pbr Pre-bend release 
| brb Bend release bend 

************************************ 
		  

See also:

tabs Xavier Rudd - To Let tabs Miscellaneous / Australiana - Advance Australia Fair tabs Pete Murray - Please tabs Noiseworks - Touch tabs Ben lee - Something Borrowed, Something Blue tabs Miscellaneous / Australiana - Collingwood Football Club Theme Song
e-chords

Other versions:

tabs Wolfmother - Cosmonaut
auto scroll beats size up size down change color hide chords drawings
tab show chords e-chords YouTube Clip e-chords hide all tabs e-chords go to top tab

share