Wolfmother

Woman

Wolfmother

tabs Expert expert

by  VICTOR_NASA

save to print version add songbook text version e-mail correct tuner
chordsukulelecavacokeyboardtabbassdrumsharmonicaflute Guitar Pro
close

there isn't a video lesson for this song

chords

Woman

	  		Woman - Wolfmother  
 
Transcrito por Nasa 
 
 
Verso: 
 
e-------------------------------------------------------------------------|               
B-------------------------------------------------------------------------|            
G-------------------------------------------------------------------------|            
D?9?-9-9?-9-9-----------9?-9-9?-9-9-----------9?-9-9?-9-9-----------7--5--|            
A?7?-7-7?-7-7--------5--7?-7-7?-7-7--------5--7?-7-7?-7-7--------5--7--5--|            
E--------------5-5h7-----------------5-5h7-----------------5-5h7----5--3--|            
   
 
Refrão: 
  
e--------------------------------------|  
B--------------------------------------|  
G--------------------------------------|  
D----7----10---7----10---9----12-------|  
A----7----10---7----10---9----10-------|  
E----5----8----5----8----7----10-------|  
  
 
Solo: 
 
e----------------------------------------------|  
B----------------------------------------------|  
G----------------------------------------------| {várias vezes} 
D----------------------------------------------|   
A----7p5---5----------------7p5---5------------|  
E--------7--7-5-7p5-3-5---------7--7-5-7p5-3-0-|  
  
e----------------------------------------------|  
B----------------------------------------------|  
G----------------------------------------------| {várias vezes} 
D----------7---------7---------7---------9-----|  
A----------5---------5---------5---------7-----|  
E----5-6h7-----5-6h7-----5-6h7-----5-6h7-------|  
 
e-------------------------------| 
B-------------------------------| 
G-------------------------------| 
D-----------------------2---5---| 
A----7p5---5------------2---5---| 
E--------7--7-5-7p5-3-5-0---3---| 
 
 

		  

See also:

tabs Sidewinder - Titanic Days tabs Ed Kuepper - By The Way tabs The Saints - Stranded tabs John Butler Trio - Attitude tabs Pete Murray - Fall Your Way tabs John Butler Trio - Crazy
e-chords

Other versions:

tabs Maroon 5 - Woman tabs Scorpions - Woman tabs Wolfmother - Woman tabs Wolfmother - Woman tabs John Lennon - Woman tabs The 1975 - Woman
auto scroll beats size up size down change color hide chords drawings
tab show chords e-chords YouTube Clip e-chords hide all tabs e-chords go to top tab

share