Wolfmother

I Aint Got No

Wolfmother

tabs

by  VICTBORGES

save to print version add songbook text version e-mail correct tuner
chordsukulelecavacokeyboardtabbassdrumsharmonicaflute Guitar Pro
close

there isn't a video lesson for this song

chords

I Aint Got No

	  		 

Tuning: Standard EADGBE 

Chorus 

I ain't got no 
reservation 
e|---------------------------------------------------------------------------| 
B|---------------------------------------------------------------------------| 
G|------3---3---8--3--3--------6--6------------------------------------------| 
D|------3---3---8--3--3--4--4--6--6------------------------------------------| x2 
A|------1---1---6--1--1--4--4--4--4------------------------------------------| 
E|-----------------------2--2------------------------------------------------| 

I'm just sitting here listening to you 
e|---------------------------------------------------------------------------| 
B|---------------------------------------------------------------------------| 
G|-------6--6---8------------------------------------------------------------| 
D|-------6--6---8--You can palm mute and keep strumming this quietly--------| 
A|-------4--4---6--------------------------or just play it once and hold----| 
E|---------------------------------------------------------------------------| 

I ain't got no 
reservation 
e|---------------------------------------------------------------------------| 
B|---------------------------------------------------------------------------| 
G|------3---3---8--3--3--------6--6------------------------------------------| 
D|------3---3---8--3--3--4--4--6--6------------------------------------------| x2 
A|------1---1---6--1--1--4--4--4--4------------------------------------------| 
E|-----------------------2--2------------------------------------------------| 

I'm just sitting here listening to you 
e|---------------------------------------------------------------------------| 
B|---------------------------------------------------------------------------| 
G|-------6--6---8------------------------------------------------------------| 
D|-------6--6---8------------------------------------------------------------| 
A|-------4--4---6------------------------------------------------------------| 
E|---------------------------------------------------------------------------| 

verse 1 

e|---------------------------------------------------------------------------| 
B|--palm mute these power chords-------------------------------------------| 
G|--3--3--3--3--3--3--3--3--3--3--3--3---------------------------------------| x2 
D|--3--3--3--3--3--3--3--3--3--3--3--3-6b-4----------------------------------| 
A|--1--1--1--1--1--1--1--1--1--1--1--1---------------------------------------| 
E|---------------------------------------------------------------------------| 

Talk is cheap 
if you can't 
e|---------------------------------------------------------------------------| 
B|--palm mute these power chords-------------------------------------------| 
G|--3--3--3--3--3--3--3--3--3--3--3--3---------------------------------------| x2 
D|--3--3--3--3--3--3--3--3--3--3--3--3-6b-4----------------------------------| 
A|--1--1--1--1--1--1--1--1--1--1--1--1---------------------------------------| 
E|---------------------------------------------------------------------------| 

walk the walk 
e|---------------------------------------------------------------------------| 
B|--palm mute these power chords-------------------------------------------| 
G|--6--6--6--6--6--6--6--6--8--8--8--8--8--8--8--8---------------------------| 
D|--6--6--6--6--6--6--6--6--8--8--8--8--8--8--8--8---------------------------| 
A|--4--4--4--4--4--4--4--4--6--6--6--6--6--6--6--6---------------------------| 
E|---------------------------------------------------------------------------| 

I listened to you 
I heard what you said 
e|---------------------------------------------------------------------------| 
B|--palm mute these power chords-------------------------------------------| 
G|--3--3--3--3--3--3--3--3--3--3--3--3---------------------------------------| x2 
D|--3--3--3--3--3--3--3--3--3--3--3--3-6b-4----------------------------------| 
A|--1--1--1--1--1--1--1--1--1--1--1--1---------------------------------------| 
E|---------------------------------------------------------------------------| 

Now you got to do it today 
e|---------------------------------------------------------------------------| 
B|---palm mute these power chords------------------------------------------| 
G|--6--6--6--6--6--6--6--6--8--8--8--8--8--8--8--8--3--3--3--3--3--3--3--3---| 
D|--6--6--6--6--6--6--6--6--8--8--8--8--8--8--8--8--3--3--3--3--3--3--3--3---| 
A|--4--4--4--4--4--4--4--4--6--6--6--6--6--6--6--6--1--1--1--1--1--1--1--1---| 
E|---------------------------------------------------------------------------| 

Chorus 
See above Chorus, won't bother re-tabbing to save space on screen 

verse 2 

e|---------------------------------------------------------------------------| 
B|--palm mute these power chords-------------------------------------------| 
G|--3--3--3--3--3--3--3--3--3--3--3--3---------------------------------------| x2 
D|--3--3--3--3--3--3--3--3--3--3--3--3-6b-4----------------------------------| 
A|--1--1--1--1--1--1--1--1--1--1--1--1---------------------------------------| 
E|---------------------------------------------------------------------------| 

I listened to you 
I heard what you said 
e|---------------------------------------------------------------------------| 
B|--palm mute these power chords-------------------------------------------| 
G|--3--3--3--3--3--3--3--3--3--3--3--3---------------------------------------| x2 
D|--3--3--3--3--3--3--3--3--3--3--3--3-6b-4----------------------------------| 
A|--1--1--1--1--1--1--1--1--1--1--1--1---------------------------------------| 
E|---------------------------------------------------------------------------| 

It don't mean nothing if it's just in your head 
e|---------------------------------------------------------------------------| 
B|--palm mute these power chords-------------------------------------------| 
G|--6--6--6--6--6--6--6--6--8--8--8--8--8--8--8--8---------------------------| 
D|--6--6--6--6--6--6--6--6--8--8--8--8--8--8--8--8---------------------------| 
A|--4--4--4--4--4--4--4--4--6--6--6--6--6--6--6--6---------------------------| 
E|---------------------------------------------------------------------------| 

Chorus 
See above 

Bridge 
Power chords lined up to word timing 
       I listened to the words you said and I know just how you feel 
e|---------------------------------------------------------------------------| 
B|---------------------------------------------------------------------------| 
G|--3------------------------------------------3-----------------------------| 
D|--3------------------------------------------3-----------------------------| 
A|--1------------------------------------------1-----------------------------| 
E|---------------------------------------------------------------------------| 
       You can't preach to the converted men I know the deal 
e|--------------------------------------------------------Sp4zzy-----------| 
B|---------------------------------------------------------------------------| 
G|--3-------------------------------------------3----------------------------| 
D|--3-------------------------------------------3------pull offs/hammer ons| 
A|--1-------------------------------------------1-------------6p4h6p4h6------| 
E|---------------------------------------------------------------------------| 

       Now it's coming to the time when you got to walk the walk 
e|---------------------------------------------------------------------------| 
B|---------------------------------------------------------------------------| 
G|--3---------------------------------------3--------------------------------| 
D|--3---------------------------------------3--------------------------------| 
A|--1---------------------------------------1-------------------6p4h6p4h6----| 
E|---------------------------------------------------------------------------| 
       You got to make it happen man I can't listen to you talk 
e|---------------------------------------------------------------------------| 
B|---------------------------------------------------------------------------| 
G|--3------------------------------------------3-----------------------------| 
D|--3------------------------------------------3-----------------------------| 
A|--1------------------------------------------1-----------------------------| 
E|---------------------------------------------------------------------------| 

End Chorus 
Some minor differences in lyrics and ending power chords 

I said I ain't got no 
reservation 
e|---------------------------------------------------------------------------| 
B|---------------------------------------------------------------------------| 
G|------3---3---8--3--3--------6--6------------------------------------------| 
D|------3---3---8--3--3--4--4--6--6------------------------------------------| x2 
A|------1---1---6--1--1--4--4--4--4------------------------------------------| 
E|-----------------------2--2------------------------------------------------| 

I'm just sitting here talkin' to you 
e|---------------------------------------------------------------------------| 
B|---------------------------------------------------------------------------| 
G|-------6--6---8------------------------------------------------------------| 
D|-------6--6---8--You can palm mute and keep strumming this quietly--------| 
A|-------4--4---6--------------------------or just play it once and hold----| 
E|---------------------------------------------------------------------------| 

I ain't got no 
reservation 
e|---------------------------------------------------------------------------| 
B|---------------------------------------------------------------------------| 
G|------3---3---8--3--3--------6--6------------------------------------------| 
D|------3---3---8--3--3--4--4--6--6------------------------------------------| x2 
A|------1---1---6--1--1--4--4--4--4------------------------------------------| 
E|-----------------------2--2------------------------------------------------| 

I'm just sitting here listening to you 
e|---------------------------------------------------------------------------| 
B|---------------------------------------------------------------------------| 
G|-------6--6---8------------------------------------------------------------| 
D|-------6--6---8------------------------------------------------------------| 
A|-------4--4---6------------------------------------------------------------| 
E|---------------------------------------------------------------------------| 

I said I ain't got no 
I ain't got no 
e|---------------------------------------------------------------------------| 
B|---------------------------------------------------------------------------| 
G|------3---3---8--3--3--------6--6------------------------------------------| 
D|------3---3---8--3--3--4--4--6--6------------------------------------------| x2 
A|------1---1---6--1--1--4--4--4--4------------------------------------------| 
E|-----------------------2--2------------------------------------------------| 

I'm just sitting here listening to you 
e|---------------------------------------------------------------------------| 
B|---------------------------------------------------------------------------| 
G|-------6--6---8------------------------------------------------------------| 
D|-------6--6---8------------------------------------------------------------| 
A|-------4--4---6------------------------------------------------------------| 
E|---------------------------------------------------------------------------| 

I said I ain't got no 
I ain't got no 
e|---------------------------------------------------------------------------| 
B|---------------------------------------------------------------------------| 
G|------3---3---8--3--3--------6--6------------------------------------------| 
D|------3---3---8--3--3--4--4--6--6------------------------------------------| x2 
A|------1---1---6--1--1--4--4--4--4------------------------------------------| 
E|-----------------------2--2------------------------------------------------| 

I'm just sitting here 
I'm just sitting here 
I'm just sitting here, talking to you 
e|--------------------|    e|-----------||     
B|--------------------|    B|-----------|| 
G|-------6--6---8-----|    G|-----3-----|| 
D|-------6--6---8-----| x3 D|-----3-----|| 
A|-------4--4---6-----|    A|-----1-----|| 
E|--------------------|    E|-----------|| 

Hope this was helpful! Originally uploaded to Ultimate Guitar Tabs by Sp4zzy! 
If this helped you learn the song please give it a good rating! First tab ever. 

************************************ 

| /   slide up 
| \   slide down 
| h   hammer-on 
| p   pull-off 
| ~   vibrato 
| +   harmonic 
| x   Mute note 
| b   Bend 
| pb  Pre-bend 
| br  Bend release 
| pbr Pre-bend release 
| brb Bend release bend 

************************************ 
		  

See also:

tabs Powderfinger - My Happiness tabs The Screaming Jets - Better tabs John Butler Trio - Pickapart tabs Powderfinger - Sunsets (Acoustic) tabs Xavier Rudd - Green Spandex tabs The Veronicas - Everything I'm Not
e-chords

Other versions:

tabs Wolfmother - I Aint Got No
auto scroll beats size up size down change color hide chords drawings
tab show chords e-chords YouTube Clip e-chords hide all tabs e-chords go to top tab

share