Wolfmother

Apple Tree

Wolfmother

tabs Beginner beginner

save to print version add songbook text version e-mail correct tuner
chordsukulelecavacokeyboardtabbassdrumsharmonicaflute Guitar Pro
close

there isn't a video lesson for this song

chords

Apple Tree

	  		Intro 
e----------------------------------------------- 
B----------------------------------------------- 
G----------------------------------------------- 
D-------------------9------------------9-------- 
A-------------------9------------------9-------- 
E-------------------7------------------7-------- 
 
 
 
e----------------------------------------------- 
B----------------------------------------------- 
G----------------------------------------------- 
D-------------------9--------------------------- 
A-------------------9--------------------------- 
E-------------------7--------------------------- 
 
 
 
e----------------------------------------------- 
B----------------------------------------------- 
G----------------------------------------------- 
D--9--9--9--9-------------9--9--9--9------------ 
A--9--9--9--9-----5h7--5--9--9--9--9-----5h7--5- 
E--7--7--7--7--5h7--------7--7--7--7--5h7------- 
 
 
 
e----------------------------------------------- 
B----------------------------------------------- 
G----------------------------------------------- 
D--9--9--9--9-------------9--9--9--9------------ 
A--9--9--9--9-----5h7--5--9--9--9--9-----5h7--5- 
E--7--7--7--7--5h7--------7--7--7--7--5h7------- 
 
 
 
e----------------------------------------------- 
B----------------------------------------------- 
G----------------------------------------------- 
D--9------7--9------7--9------7--9------7--9---- 
A--9------7--9------7--9------7--9------7--9---- 
E--7------5--7------5--7------5--7------5--7---- 
  let ring 
 
 
e----------------------------------------------- 
B----------------------------------------------- 
G----------------------------------------------- 
D--12-12-12-12-12-12-12-12-12-12----7--9-------- 
A--12-12-12-12-12-12-12-12-12-12----7--9-------- 
E--10-10-10-10-10-10-10-10-10-10----5--7-------- 
 
 
Interlude? Solo? 
e----------------------------------------------- 
B----------------------------------------------- 
G----------------------------------------------- 
D----------------------------------------------- 
A-----7h9-9/12--14--14----------7h9-9/12--14--14 
E--7h9-----------------5--7--7h9---------------- 
 
 
I'm not goiong to attempt the solo, but at the least 
you can use the bit above for the bass line. 
 
 
 
 
There's enough tabbage and riffage here to give you 
the general impression of the song... 
 
 
 
[email protected] - Wolfmother 
www.wolfmother.com 
From the wolfmother EP (modular) 
 
 
 
 
Verse 
 
 
e----------------------------------------------- 
B----------------------------------------------- 
G--9--9-9--9-9--9--------9--9-9--9-9--9--------- 
D--9--9-9--9-9--9--------9--9-9--9-9--9--------- 
A--7--7-7--7-7--7-----5--7--7-7--7-7--7-----5--- 
E-----------------5h7-------------------5h7----- 
 
 
 
e----------------------------------------------- 
B----------------------------------------------- 
G--9--9-9--9-9--9------------------------------- 
D--9--9-9--9-9--9--------7-------5-------------- 
A--7--7-7--7-7--7-----5--7-------5-------------- 
E-----------------5h7----5-------3-------------- 
 
 
 
 
Chorus 
 
 
e----------------------------------------------- 
B----------------------------------------------- 
G----------------------------------------------- 
D--7---------10----------7-----------10--------- 
A--7---------10----------7-----------10--------- 
E--5---------8-----------5-----------8---------- 
 
 
 
e----------------------------------------------- 
B----------------------------------------------- 
G----------------------------------------------- 
D--9------------12------------------------------ 
A--9------------12------------------------------ 
E--7------------10------------------------------ 
 
 
 
 
Funky Bit 
 
 
e----------------------------------------------- 
B----------------------------------------------- 
G-9p7--------------------9p7-------------------- 
D-----9--9p7-----------------9--9p7------------- 
A------------9--7p5p0---------------9--7p5p0---- 
E----------------------5----------------------3- 
 
 
 
e----------------------------------------------- 
B----------------------------------------------- 
G-9p7--------------------9p7-------------------- 
D-----9--9p7-----------------9--9p7------------- 
A------------9--7p5p0---------------9--7p5p0---- 
E----------------------5----------------------3- 
 
 
 
e----------------------------------------------- 
B----------------------------------------------- 
G----------------------------------------------- 
D----------------------------------------------- 
A---------5---------5---------5---------7------- 
E--0h5h7-----0h5h7-----0h5h7-----0h5h7---------- 
 
 
I've got a feeling that last bit is horribly wrong,  
and should be put down to avoid any further misery 
on it's behalf.  However, I couldn't possibly give  
a flying fuck 'cos it still sounds ok...so bugger it. 
If it wanted the pain to end it'd ask, right? 
 
 
 
 
As always, questions/comments and half-bricks in  
socks to the face are welcome... 
 
 
 
 
[email protected]  

		  

See also:

tabs Xavier Rudd - To Let tabs Miscellaneous / Australiana - Advance Australia Fair tabs Pete Murray - Please tabs Noiseworks - Touch tabs Ben lee - Something Borrowed, Something Blue tabs Miscellaneous / Australiana - Collingwood Football Club Theme Song
e-chords

Other versions:

tabs Wolfmother - Apple Tree
auto scroll beats size up size down change color hide chords drawings
tab show chords e-chords YouTube Clip e-chords hide all tabs e-chords go to top tab

share